  0
SECTION
  2
HEADER
  9
$ACADVER
  1
AC1015
  9
$ACADMAINTVER
 70
    20
  9
$DWGCODEPAGE
  3
ANSI_1252
  9
$INSBASE
 10
0.0
 20
0.0
 30
0.0
  9
$EXTMIN
 10
-108.3249999999999
 20
-155.9491519999999
 30
-0.0000000000000011
  9
$EXTMAX
 10
180.3723159999999
 20
167.5000000000001
 30
0.0000000000000006
  9
$LIMMIN
 10
-20.0
 20
-0.021978
  9
$LIMMAX
 10
2645.85
 20
758.35
  9
$ORTHOMODE
 70
     1
  9
$REGENMODE
 70
     1
  9
$FILLMODE
 70
     1
  9
$QTEXTMODE
 70
     0
  9
$MIRRTEXT
 70
     1
  9
$LTSCALE
 40
10.0
  9
$ATTMODE
 70
     1
  9
$TEXTSIZE
 40
0.0
  9
$TRACEWID
 40
0.05
  9
$TEXTSTYLE
  7
Standard
  9
$CLAYER
  8
0
  9
$CELTYPE
  6
Continuous
  9
$CECOLOR
 62
   256
  9
$CELTSCALE
 40
1.0
  9
$DISPSILH
 70
     0
  9
$DIMSCALE
 40
1.0
  9
$DIMASZ
 40
1.25
  9
$DIMEXO
 40
0.0
  9
$DIMDLI
 40
0.38
  9
$DIMRND
 40
0.0
  9
$DIMDLE
 40
0.0
  9
$DIMEXE
 40
0.75
  9
$DIMTP
 40
0.0
  9
$DIMTM
 40
0.0
  9
$DIMTXT
 40
2.5
  9
$DIMCEN
 40
0.09
  9
$DIMTSZ
 40
0.0
  9
$DIMTOL
 70
     0
  9
$DIMLIM
 70
     0
  9
$DIMTIH
 70
     0
  9
$DIMTOH
 70
     0
  9
$DIMSE1
 70
     0
  9
$DIMSE2
 70
     0
  9
$DIMTAD
 70
     1
  9
$DIMZIN
 70
     0
  9
$DIMBLK
  1

  9
$DIMASO
 70
     1
  9
$DIMSHO
 70
     1
  9
$DIMPOST
  1

  9
$DIMAPOST
  1

  9
$DIMALT
 70
     0
  9
$DIMALTD
 70
     2
  9
$DIMALTF
 40
25.4
  9
$DIMLFAC
 40
1.0
  9
$DIMTOFL
 70
     0
  9
$DIMTVP
 40
0.0
  9
$DIMTIX
 70
     0
  9
$DIMSOXD
 70
     0
  9
$DIMSAH
 70
     0
  9
$DIMBLK1
  1

  9
$DIMBLK2
  1

  9
$DIMSTYLE
  2
Standard
  9
$DIMCLRD
 70
     7
  9
$DIMCLRE
 70
     7
  9
$DIMCLRT
 70
     7
  9
$DIMTFAC
 40
0.8
  9
$DIMGAP
 40
1.25
  9
$DIMJUST
 70
     0
  9
$DIMSD1
 70
     0
  9
$DIMSD2
 70
     0
  9
$DIMTOLJ
 70
     1
  9
$DIMTZIN
 70
     0
  9
$DIMALTZ
 70
     0
  9
$DIMALTTZ
 70
     0
  9
$DIMUPT
 70
     0
  9
$DIMDEC
 70
     2
  9
$DIMTDEC
 70
     4
  9
$DIMALTU
 70
     2
  9
$DIMALTTD
 70
     2
  9
$DIMTXSTY
  7
Standard
  9
$DIMAUNIT
 70
     0
  9
$DIMADEC
 70
     0
  9
$DIMALTRND
 40
0.0
  9
$DIMAZIN
 70
     0
  9
$DIMDSEP
 70
     0
  9
$DIMATFIT
 70
     3
  9
$DIMFRAC
 70
     0
  9
$DIMLDRBLK
  1

  9
$DIMLUNIT
 70
     2
  9
$DIMLWD
 70
     0
  9
$DIMLWE
 70
     0
  9
$DIMTMOVE
 70
     0
  9
$LUNITS
 70
     2
  9
$LUPREC
 70
     4
  9
$SKETCHINC
 40
0.1
  9
$FILLETRAD
 40
0.0
  9
$AUNITS
 70
     0
  9
$AUPREC
 70
     0
  9
$MENU
  1
acad
  9
$ELEVATION
 40
0.0
  9
$PELEVATION
 40
0.0
  9
$THICKNESS
 40
0.0
  9
$LIMCHECK
 70
     0
  9
$CHAMFERA
 40
0.0
  9
$CHAMFERB
 40
0.0
  9
$CHAMFERC
 40
0.0
  9
$CHAMFERD
 40
0.0
  9
$SKPOLY
 70
     0
  9
$TDCREATE
 40
2455329.702198484
  9
$TDUCREATE
 40
2455329.618865150
  9
$TDUPDATE
 40
2455383.390814838
  9
$TDUUPDATE
 40
2455383.307481505
  9
$TDINDWG
 40
0.1355356250
  9
$TDUSRTIMER
 40
0.1355329167
  9
$USRTIMER
 70
     1
  9
$ANGBASE
 50
0.0
  9
$ANGDIR
 70
     0
  9
$PDMODE
 70
     0
  9
$PDSIZE
 40
0.0
  9
$PLINEWID
 40
0.0
  9
$SPLFRAME
 70
     0
  9
$SPLINETYPE
 70
     6
  9
$SPLINESEGS
 70
     8
  9
$HANDSEED
  5
7CB2
  9
$SURFTAB1
 70
     6
  9
$SURFTAB2
 70
     6
  9
$SURFTYPE
 70
     6
  9
$SURFU
 70
     6
  9
$SURFV
 70
     6
  9
$UCSBASE
  2

  9
$UCSNAME
  2

  9
$UCSORG
 10
0.0
 20
0.0
 30
0.0
  9
$UCSXDIR
 10
1.0
 20
0.0
 30
0.0
  9
$UCSYDIR
 10
0.0
 20
1.0
 30
0.0
  9
$UCSORTHOREF
  2

  9
$UCSORTHOVIEW
 70
     0
  9
$UCSORGTOP
 10
0.0
 20
0.0
 30
0.0
  9
$UCSORGBOTTOM
 10
0.0
 20
0.0
 30
0.0
  9
$UCSORGLEFT
 10
0.0
 20
0.0
 30
0.0
  9
$UCSORGRIGHT
 10
0.0
 20
0.0
 30
0.0
  9
$UCSORGFRONT
 10
0.0
 20
0.0
 30
0.0
  9
$UCSORGBACK
 10
0.0
 20
0.0
 30
0.0
  9
$PUCSBASE
  2

  9
$PUCSNAME
  2

  9
$PUCSORG
 10
0.0
 20
0.0
 30
0.0
  9
$PUCSXDIR
 10
1.0
 20
0.0
 30
0.0
  9
$PUCSYDIR
 10
0.0
 20
1.0
 30
0.0
  9
$PUCSORTHOREF
  2

  9
$PUCSORTHOVIEW
 70
     0
  9
$PUCSORGTOP
 10
0.0
 20
0.0
 30
0.0
  9
$PUCSORGBOTTOM
 10
0.0
 20
0.0
 30
0.0
  9
$PUCSORGLEFT
 10
0.0
 20
0.0
 30
0.0
  9
$PUCSORGRIGHT
 10
0.0
 20
0.0
 30
0.0
  9
$PUCSORGFRONT
 10
0.0
 20
0.0
 30
0.0
  9
$PUCSORGBACK
 10
0.0
 20
0.0
 30
0.0
  9
$USERI1
 70
     0
  9
$USERI2
 70
     0
  9
$USERI3
 70
     0
  9
$USERI4
 70
     0
  9
$USERI5
 70
     0
  9
$USERR1
 40
0.0
  9
$USERR2
 40
0.0
  9
$USERR3
 40
0.0
  9
$USERR4
 40
0.0
  9
$USERR5
 40
0.0
  9
$WORLDVIEW
 70
     1
  9
$SHADEDGE
 70
     3
  9
$SHADEDIF
 70
    70
  9
$TILEMODE
 70
     1
  9
$MAXACTVP
 70
    16
  9
$PINSBASE
 10
0.0
 20
0.0
 30
0.0
  9
$PLIMCHECK
 70
     0
  9
$PEXTMIN
 10
1.000000000000000E+20
 20
1.000000000000000E+20
 30
1.000000000000000E+20
  9
$PEXTMAX
 10
-1.000000000000000E+20
 20
-1.000000000000000E+20
 30
-1.000000000000000E+20
  9
$PLIMMIN
 10
0.0
 20
0.0
  9
$PLIMMAX
 10
12.0
 20
9.0
  9
$UNITMODE
 70
     0
  9
$VISRETAIN
 70
     0
  9
$PLINEGEN
 70
     1
  9
$PSLTSCALE
 70
     0
  9
$TREEDEPTH
 70
  3020
  9
$CMLSTYLE
  2
Standard
  9
$CMLJUST
 70
     0
  9
$CMLSCALE
 40
1.0
  9
$PROXYGRAPHICS
 70
     0
  9
$MEASUREMENT
 70
     1
  9
$CELWEIGHT
370
     0
  9
$ENDCAPS
280
     0
  9
$JOINSTYLE
280
     0
  9
$LWDISPLAY
290
     0
  9
$INSUNITS
 70
     0
  9
$HYPERLINKBASE
  1

  9
$STYLESHEET
  1

  9
$XEDIT
290
     1
  9
$CEPSNTYPE
380
     0
  9
$PSTYLEMODE
290
     1
  9
$FINGERPRINTGUID
  2

  9
$VERSIONGUID
  2
{7F690FBC-3F66-412F-9C47-FF58E6B79555}
  9
$EXTNAMES
290
     1
  9
$PSVPSCALE
 40
0.0
  9
$OLESTARTUP
290
     0
  0
ENDSEC
  0
SECTION
  2
CLASSES
  0
CLASS
  1
IMAGE
  2
AcDbRasterImage
  3
ISM
 90
    34943
280
     0
281
     1
  0
CLASS
  1
DICTIONARYVAR
  2
AcDbDictionaryVar
  3
ObjectDBX Classes
 90
        0
280
     0
281
     0
  0
CLASS
  1
RASTERVARIABLES
  2
AcDbRasterVariables
  3
ISM
 90
    32768
280
     0
281
     0
  0
CLASS
  1
IMAGEDEF
  2
AcDbRasterImageDef
  3
ISM
 90
    32768
280
     0
281
     0
  0
CLASS
  1
IMAGEDEF_REACTOR
  2
AcDbRasterImageDefReactor
  3
ISM
 90
    32769
280
     0
281
     0
  0
CLASS
  1
IDBUFFER
  2
AcDbIdBuffer
  3
ObjectDBX Classes
 90
    32768
280
     0
281
     0
  0
CLASS
  1
SPATIAL_FILTER
  2
AcDbSpatialFilter
  3
ObjectDBX Classes
 90
    32768
280
     0
281
     0
  0
CLASS
  1
SORTENTSTABLE
  2
AcDbSortentsTable
  3
ObjectDBX Classes
 90
        0
280
     0
281
     0
  0
CLASS
  1
LAYER_INDEX
  2
AcDbLayerIndex
  3
ObjectDBX Classes
 90
    32768
280
     0
281
     0
  0
CLASS
  1
SPATIAL_INDEX
  2
AcDbSpatialIndex
  3
ObjectDBX Classes
 90
    32768
280
     0
281
     0
  0
CLASS
  1
OBJECT_PTR
  2
CAseDLPNTableRecord
  3
ASE-LPNTableRecord
 90
    32769
280
     0
281
     0
  0
CLASS
  1
LAYOUT
  2
AcDbLayout
  3
ObjectDBX Classes
 90
        0
280
     0
281
     0
  0
CLASS
  1
PLOTSETTINGS
  2
AcDbPlotSettings
  3
ObjectDBX Classes
 90
    32768
280
     0
281
     0
  0
CLASS
  1
ACDBDICTIONARYWDFLT
  2
AcDbDictionaryWithDefault
  3
ObjectDBX Classes
 90
        0
280
     0
281
     0
  0
CLASS
  1
ACDBPLACEHOLDER
  2
AcDbPlaceHolder
  3
ObjectDBX Classes
 90
        0
280
     0
281
     0
  0
CLASS
  1
VBA_PROJECT
  2
AcDbVbaProject
  3
acad
 90
    32768
280
     0
281
     0
  0
CLASS
  1
WIPEOUT
  2
AcDbWipeout
  3
"WipeOut|Product Desc: Object Enabler for WipeOut entity                        |Company: Autodesk, Inc.                        |WEB Address: www.autodesk.com"
 90
    34943
280
     0
281
     1
  0
CLASS
  1
WIPEOUTVARIABLES
  2
AcDbWipeoutVariables
  3
"WipeOut|Product Desc:     WipeOut Dbx Application|Company:          Autodesk, Inc.|WEB Address:      www.autodesk.com"
 90
        0
280
     0
281
     0
  0
CLASS
  1
RTEXT
  2
RText
  3
RText|AutoCAD Express Tool|expresstools@autodesk.com
 90
    35839
280
     0
281
     1
  0
CLASS
  1
ARCALIGNEDTEXT
  2
AcDbArcAlignedText
  3
ATEXT|AutoCAD Express Tool|expresstools@autodesk.com
 90
    32768
280
     0
281
     1
  0
CLASS
  1
MATERIAL
  2
AcDbMaterial
  3
ObjectDBX Classes
 90
     1153
280
     0
281
     0
  0
CLASS
  1
VISUALSTYLE
  2
AcDbVisualStyle
  3
ObjectDBX Classes
 90
     4095
280
     0
281
     0
  0
CLASS
  1
TABLESTYLE
  2
AcDbTableStyle
  3
ObjectDBX Classes
 90
     4095
280
     0
281
     0
  0
CLASS
  1
SCALE
  2
AcDbScale
  3
ObjectDBX Classes
 90
     1153
280
     0
281
     0
  0
CLASS
  1
MLEADERSTYLE
  2
AcDbMLeaderStyle
  3
ACDB_MLEADERSTYLE_CLASS
 90
     4095
280
     0
281
     0
  0
CLASS
  1
CELLSTYLEMAP
  2
AcDbCellStyleMap
  3
ObjectDBX Classes
 90
     1152
280
     0
281
     0
  0
ENDSEC
  0
SECTION
  2
TABLES
  0
TABLE
  2
VPORT
  5
7
330
0
100
AcDbSymbolTable
 70
     1
  0
VPORT
  5
15
330
7
100
AcDbSymbolTableRecord
100
AcDbViewportTableRecord
  2
*ACTIVE
 70
     0
 10
0.0
 20
0.0
 11
1.0
 21
1.0
 12
37.61379806790126
 22
-2.199418650480225
 13
0.0
 23
0.0
 14
1.0
 24
1.0
 15
0.0
 25
0.0
 16
0.0
 26
0.0
 36
1.0
 17
0.0
 27
0.0
 37
0.0
 40
366.0323356820344
 41
1.611330698287219
 42
50.0
 43
0.0
 44
0.0
 50
0.0
 51
0.0
 71
     0
 72
   100
 73
     1
 74
     1
 75
     0
 76
     0
 77
     0
 78
     0
281
     0
 65
     0
110
0.0
120
0.0
130
0.0
111
1.0
121
0.0
131
0.0
112
0.0
122
1.0
132
0.0
 79
     0
146
0.0
  0
ENDTAB
  0
TABLE
  2
LTYPE
  5
4
330
0
100
AcDbSymbolTable
 70
     2
  0
LTYPE
  5
11
330
4
100
AcDbSymbolTableRecord
100
AcDbLinetypeTableRecord
  2
ByBlock
 70
     0
  3

 72
    65
 73
     0
 40
0.0
  0
LTYPE
  5
12
330
4
100
AcDbSymbolTableRecord
100
AcDbLinetypeTableRecord
  2
ByLayer
 70
     0
  3

 72
    65
 73
     0
 40
0.0
  0
LTYPE
  5
13
330
4
100
AcDbSymbolTableRecord
100
AcDbLinetypeTableRecord
  2
Continuous
 70
     0
  3
Solid line
 72
    65
 73
     0
 40
0.0
  0
LTYPE
  5
2A2
330
4
100
AcDbSymbolTableRecord
100
AcDbLinetypeTableRecord
  2
CENTER
 70
     0
  3
____ _ ____ _ ____ _ ____ _ ____ _ ____ _ ____
 72
    65
 73
     4
 40
2.0
 49
1.25
 74
     0
 49
-0.25
 74
     0
 49
0.25
 74
     0
 49
-0.25
 74
     0
  0
ENDTAB
  0
TABLE
  2
LAYER
  5
2
330
0
100
AcDbSymbolTable
 70
     2
  0
LAYER
  5
14
102
{ACAD_XDICTIONARY
360
72C9
102
}
330
2
100
AcDbSymbolTableRecord
100
AcDbLayerTableRecord
  2
0
 70
     0
 62
     7
  6
Continuous
370
    -3
390
1D
  0
LAYER
  5
7C5C
330
2
100
AcDbSymbolTableRecord
100
AcDbLayerTableRecord
  2
Defpoints
 70
     0
 62
     7
  6
Continuous
290
     0
370
    -3
390
1D
  0
ENDTAB
  0
TABLE
  2
STYLE
  5
3
330
0
100
AcDbSymbolTable
 70
     1
  0
STYLE
  5
17
330
3
100
AcDbSymbolTableRecord
100
AcDbTextStyleTableRecord
  2
Standard
 70
     0
 40
0.0
 41
1.0
 50
0.0
 71
     0
 42
0.0
  3
IsonormD
  4

1001
ACAD
1000
IsonormD
1071
        0
  0
ENDTAB
  0
TABLE
  2
VIEW
  5
5
330
0
100
AcDbSymbolTable
 70
     0
  0
ENDTAB
  0
TABLE
  2
UCS
  5
6
330
0
100
AcDbSymbolTable
 70
     0
  0
ENDTAB
  0
TABLE
  2
APPID
  5
8
330
0
100
AcDbSymbolTable
 70
     4
  0
APPID
  5
16
330
8
100
AcDbSymbolTableRecord
100
AcDbRegAppTableRecord
  2
ACAD
 70
     0
  0
APPID
  5
26
330
8
100
AcDbSymbolTableRecord
100
AcDbRegAppTableRecord
  2
TopSolid_Draft
 70
     0
  0
APPID
  5
39AF
330
8
100
AcDbSymbolTableRecord
100
AcDbRegAppTableRecord
  2
ACAD_MLEADERVER
 70
     0
  0
APPID
  5
72C7
330
8
100
AcDbSymbolTableRecord
100
AcDbRegAppTableRecord
  2
DCO15
 70
     0
  0
ENDTAB
  0
TABLE
  2
DIMSTYLE
  5
9
330
0
100
AcDbSymbolTable
 70
     1
100
AcDbDimStyleTable
 71
     1
340
18
  0
DIMSTYLE
105
18
330
9
100
AcDbSymbolTableRecord
100
AcDbDimStyleTableRecord
  2
Standard
 70
     0
 41
1.25
 42
0.0
 44
0.75
 73
     0
 74
     0
 77
     1
140
2.5
146
0.8
147
1.25
176
     7
177
     7
178
     7
271
     2
340
17
  0
ENDTAB
  0
TABLE
  2
BLOCK_RECORD
  5
1
330
0
100
AcDbSymbolTable
 70
     0
  0
BLOCK_RECORD
  5
A
102
{ACAD_XDICTIONARY
360
39B7
102
}
330
1
100
AcDbSymbolTableRecord
100
AcDbBlockTableRecord
  2
*MODEL_SPACE
340
20
  0
BLOCK_RECORD
  5
B
330
1
100
AcDbSymbolTableRecord
100
AcDbBlockTableRecord
  2
*PAPER_SPACE
340
21
  0
ENDTAB
  0
ENDSEC
  0
SECTION
  2
BLOCKS
  0
BLOCK
  5
D
330
A
100
AcDbEntity
  8
0
100
AcDbBlockBegin
  2
*MODEL_SPACE
 70
     0
 10
0.0
 20
0.0
 30
0.0
  3
*MODEL_SPACE
  1

  0
ENDBLK
  5
E
330
A
100
AcDbEntity
  8
0
100
AcDbBlockEnd
  0
BLOCK
  5
F
330
B
100
AcDbEntity
 67
     1
  8
0
100
AcDbBlockBegin
  2
*PAPER_SPACE
 70
     0
 10
0.0
 20
0.0
 30
0.0
  3
*PAPER_SPACE
  1

  0
ENDBLK
  5
10
330
B
100
AcDbEntity
 67
     1
  8
0
100
AcDbBlockEnd
  0
ENDSEC
  0
SECTION
  2
ENTITIES
  0
LINE
  5
1F88
330
A
100
AcDbEntity
  8
0
  6
CENTER
 62
     1
100
AcDbLine
 10
-105.4749999999999
 20
-4.999999999999894
 30
0.0
 11
-96.17499999999997
 21
-4.999999999999894
 31
0.0
  0
LINE
  5
1F89
330
A
100
AcDbEntity
  8
0
  6
CENTER
 62
     1
100
AcDbLine
 10
-100.8249999999999
 20
-9.649999999999906
 30
0.0
 11
-100.8249999999999
 21
-0.3499999999998939
 31
0.0
  0
LINE
  5
1F8A
330
A
100
AcDbEntity
  8
0
  6
CENTER
 62
     1
100
AcDbLine
 10
-104.9249999999999
 20
4.0000000000001
 30
0.0
 11
-96.72499999999997
 21
4.0000000000001
 31
0.0
  0
LINE
  5
1F8B
330
A
100
AcDbEntity
  8
0
  6
CENTER
 62
     1
100
AcDbLine
 10
-100.8249999999999
 20
-0.099999999999894
 30
0.0
 11
-100.8249999999999
 21
8.100000000000093
 31
0.0
  0
LINE
  5
1F8C
330
A
100
AcDbEntity
  8
0
  6
CENTER
 62
     1
100
AcDbLine
 10
-105.3249999999999
 20
66.00000000000007
 30
0.0
 11
-96.32499999999994
 21
66.00000000000007
 31
0.0
  0
LINE
  5
1F8D
330
A
100
AcDbEntity
  8
0
  6
CENTER
 62
     1
100
AcDbLine
 10
-105.4749999999999
 20
75.0000000000001
 30
0.0
 11
-96.17499999999997
 21
75.0000000000001
 31
0.0
  0
LINE
  5
1F8E
330
A
100
AcDbEntity
  8
0
  6
CENTER
 62
     1
100
AcDbLine
 10
-79.57499999999997
 20
35.0000000000001
 30
0.0
 11
-68.57499999999996
 21
35.0000000000001
 31
0.0
  0
LINE
  5
1F8F
330
A
100
AcDbEntity
  8
0
  6
CENTER
 62
     1
100
AcDbLine
 10
-74.07499999999997
 20
29.5000000000001
 30
0.0
 11
-74.07499999999997
 21
40.5000000000001
 31
0.0
  0
LINE
  5
1F90
330
A
100
AcDbEntity
  8
0
  6
CENTER
 62
     1
100
AcDbLine
 10
-65.47499999999999
 20
-4.999999999999894
 30
0.0
 11
-56.17499999999997
 21
-4.999999999999894
 31
0.0
  0
LINE
  5
1F91
330
A
100
AcDbEntity
  8
0
  6
CENTER
 62
     1
100
AcDbLine
 10
-65.32499999999997
 20
4.0000000000001
 30
0.0
 11
-56.32499999999999
 21
4.0000000000001
 31
0.0
  0
LINE
  5
1F92
330
A
100
AcDbEntity
  8
0
  6
CENTER
 62
     1
100
AcDbLine
 10
-65.32499999999997
 20
66.00000000000007
 30
0.0
 11
-56.32499999999999
 21
66.00000000000007
 31
0.0
  0
LINE
  5
1F93
330
A
100
AcDbEntity
  8
0
  6
CENTER
 62
     1
100
AcDbLine
 10
-65.47499999999999
 20
75.0000000000001
 30
0.0
 11
-56.17499999999997
 21
75.0000000000001
 31
0.0
  0
LINE
  5
1F94
330
A
100
AcDbEntity
  8
0
  6
CENTER
 62
     1
100
AcDbLine
 10
-60.82499999999997
 20
-9.649999999999906
 30
0.0
 11
-60.82499999999997
 21
8.500000000000099
 31
0.0
  0
LINE
  5
1F95
330
A
100
AcDbEntity
  8
0
  6
CENTER
 62
     1
100
AcDbLine
 10
-60.82499999999997
 20
61.50000000000009
 30
0.0
 11
-60.82499999999997
 21
79.65000000000006
 31
0.0
  0
LINE
  5
1F96
330
A
100
AcDbEntity
  8
0
  6
CENTER
 62
     1
100
AcDbLine
 10
-100.8249999999999
 20
61.50000000000009
 30
0.0
 11
-100.8249999999999
 21
79.65000000000006
 31
0.0
  0
LINE
  5
1F97
330
A
100
AcDbEntity
  8
0
  6
CENTER
 62
     1
100
AcDbLine
 10
44.25
 20
140.0000000000001
 30
0.0
 11
55.75000000000001
 21
140.0000000000001
 31
0.0
  0
LINE
  5
1F98
330
A
100
AcDbEntity
  8
0
  6
CENTER
 62
     1
100
AcDbLine
 10
50.0
 20
134.25
 30
0.0
 11
50.0
 21
145.7500000000001
 31
0.0
  0
LINE
  5
1F99
330
A
100
AcDbEntity
  8
0
  6
CENTER
 62
     1
100
AcDbLine
 10
50.0
 20
69.75000000000007
 30
0.0
 11
50.0
 21
3.750000000000099
 31
0.0
  0
LINE
  5
1F9A
330
A
100
AcDbEntity
  8
0
  6
CENTER
 62
     1
100
AcDbLine
 10
107.175
 20
-4.999999999999894
 30
0.0
 11
121.1749999999999
 21
-4.999999999999894
 31
0.0
  0
LINE
  5
1F9B
330
A
100
AcDbEntity
  8
0
  6
CENTER
 62
     1
100
AcDbLine
 10
109.675
 20
4.0000000000001
 30
0.0
 11
118.675
 21
4.0000000000001
 31
0.0
  0
LINE
  5
1F9C
330
A
100
AcDbEntity
  8
0
  6
CENTER
 62
     1
100
AcDbLine
 10
109.675
 20
66.00000000000007
 30
0.0
 11
118.675
 21
66.00000000000007
 31
0.0
  0
LINE
  5
1F9D
330
A
100
AcDbEntity
  8
0
  6
CENTER
 62
     1
100
AcDbLine
 10
107.175
 20
75.0000000000001
 30
0.0
 11
121.1749999999999
 21
75.0000000000001
 31
0.0
  0
LINE
  5
1F9E
330
A
100
AcDbEntity
  8
0
  6
CENTER
 62
     1
100
AcDbLine
 10
147.1749999999999
 20
-4.999999999999894
 30
0.0
 11
161.175
 21
-4.999999999999894
 31
0.0
  0
LINE
  5
1F9F
330
A
100
AcDbEntity
  8
0
  6
CENTER
 62
     1
100
AcDbLine
 10
150.0749999999999
 20
4.0000000000001
 30
0.0
 11
158.275
 21
4.0000000000001
 31
0.0
  0
LINE
  5
1FA0
330
A
100
AcDbEntity
  8
0
  6
CENTER
 62
     1
100
AcDbLine
 10
149.6749999999999
 20
66.00000000000007
 30
0.0
 11
158.6749999999999
 21
66.00000000000007
 31
0.0
  0
LINE
  5
1FA1
330
A
100
AcDbEntity
  8
0
  6
CENTER
 62
     1
100
AcDbLine
 10
147.1749999999999
 20
75.0000000000001
 30
0.0
 11
161.175
 21
75.0000000000001
 31
0.0
  0
LINE
  5
1FA2
330
A
100
AcDbEntity
  8
0
  6
CENTER
 62
     1
100
AcDbLine
 10
154.1749999999999
 20
-11.99999999999989
 30
0.0
 11
154.1749999999999
 21
8.100000000000093
 31
0.0
  0
LINE
  5
1FA3
330
A
100
AcDbEntity
  8
0
  6
CENTER
 62
     1
100
AcDbLine
 10
154.1749999999999
 20
61.50000000000009
 30
0.0
 11
154.1749999999999
 21
82.00000000000008
 31
0.0
  0
LINE
  5
1FA4
330
A
100
AcDbEntity
  8
0
  6
CENTER
 62
     1
100
AcDbLine
 10
114.1749999999999
 20
-11.99999999999989
 30
0.0
 11
114.1749999999999
 21
8.500000000000099
 31
0.0
  0
LINE
  5
1FA5
330
A
100
AcDbEntity
  8
0
  6
CENTER
 62
     1
100
AcDbLine
 10
114.1749999999999
 20
61.50000000000009
 30
0.0
 11
114.1749999999999
 21
82.00000000000008
 31
0.0
  0
LINE
  5
1FA6
330
A
100
AcDbEntity
  8
0
  6
CENTER
 62
     1
100
AcDbLine
 10
45.09191100000001
 20
-74.99999999999992
 30
0.0
 11
54.90808899999999
 21
-74.99999999999992
 31
0.0
  0
LINE
  5
1FA7
330
A
100
AcDbEntity
  8
0
  6
CENTER
 62
     1
100
AcDbLine
 10
50.0
 20
-79.90808899999989
 30
0.0
 11
50.0
 21
-70.09191099999991
 31
0.0
  0
LINE
  5
522D
330
A
100
AcDbEntity
  8
0
  6
Continuous
 62
     9
100
AcDbLine
 10
166.3119209999999
 20
-72.01614799999987
 30
0.0
 11
167.385234
 21
-71.1397919999999
 31
0.0
  0
ELLIPSE
  5
522E
330
A
100
AcDbEntity
  8
0
  6
Continuous
 62
     9
100
AcDbEllipse
 10
167.385234
 20
-71.87008799999988
 30
0.0
 11
-0.5059644261120046
 21
0.6196773349971819
 31
0.0
210
-0.0000000000000001
220
0.0
230
0.9999999999999996
 40
0.816497
 41
3.926990816348173
 42
5.497787143143009
  0
LINE
  5
522F
330
A
100
AcDbEntity
  8
0
  6
Continuous
 62
     9
100
AcDbLine
 10
168.1007749999999
 20
-72.01614799999987
 30
0.0
 11
167.0274629999999
 21
-72.8925039999999
 31
0.0
  0
ELLIPSE
  5
5230
330
A
100
AcDbEntity
  8
0
  6
Continuous
 62
     7
100
AcDbEllipse
 10
166.3119209999999
 20
-72.74644399999989
 30
0.0
 11
0.5059644261120601
 21
-0.6196773349971818
 31
0.0
210
0.0
220
0.0
230
0.9999999999999998
 40
0.8164969999999998
 41
0.7853981627582937
 42
2.356194489553224
  0
LINE
  5
5231
330
A
100
AcDbEntity
  8
0
  6
Continuous
 62
     7
100
AcDbLine
 10
109.784122
 20
-64.49409099999989
 30
0.0
 11
109.784122
 21
-63.7637939999999
 31
0.0
  0
ELLIPSE
  5
5232
330
A
100
AcDbEntity
  8
0
  6
Continuous
 62
     7
100
AcDbEllipse
 10
113.0040599999999
 20
-64.42106099999991
 30
0.0
 11
2.27683991750399
 21
-2.78854800748715
 31
0.0
210
0.0
220
0.0
230
1.0
 40
0.816497
 41
2.356194489553238
 42
3.141592653589801
  0
LINE
  5
5233
330
A
100
AcDbEntity
  8
0
  6
Continuous
 62
     7
100
AcDbLine
 10
113.0040599999999
 20
-61.13472599999989
 30
0.0
 11
166.3119209999999
 21
-72.01614799999987
 31
0.0
  0
LINE
  5
5234
330
A
100
AcDbEntity
  8
0
  6
Continuous
 62
     7
100
AcDbLine
 10
167.0274629999999
 20
-72.8925039999999
 30
0.0
 11
167.0274629999999
 21
-76.16901999999988
 31
0.0
  0
ELLIPSE
  5
5235
330
A
100
AcDbEntity
  8
0
  6
Continuous
 62
     7
100
AcDbEllipse
 10
161.3031289999999
 20
-76.10580899999992
 30
0.0
 11
3.035786556671971
 21
-3.71806400998284
 31
0.0
210
0.0
220
0.0
230
1.0
 40
0.816497
 41
0.8414425004237983
 42
2.356194489553232
  0
LINE
  5
5236
330
A
100
AcDbEntity
  8
0
  6
Continuous
 62
     7
100
AcDbLine
 10
161.3031289999999
 20
-71.7240289999999
 30
0.0
 11
114.7929149999999
 21
-62.23017099999989
 31
0.0
  0
ELLIPSE
  5
5237
330
A
100
AcDbEntity
  8
0
  6
Continuous
 62
     7
100
AcDbEllipse
 10
114.7929149999999
 20
-66.6119519999999
 30
0.0
 11
3.035786556672026
 21
-3.718064009982811
 31
0.0
210
0.0
220
0.0
230
0.9999999999999998
 40
0.8164970000000002
 41
2.356194489553208
 42
3.141592653589783
  0
LINE
  5
5238
330
A
100
AcDbEntity
  8
0
  6
Continuous
 62
     7
100
AcDbLine
 10
147.7805529999999
 20
-120.6322389999999
 30
0.0
 11
147.65417
 21
-120.6064409999999
 31
0.0
  0
LINE
  5
5239
330
A
100
AcDbEntity
  8
0
  6
Continuous
 62
     9
100
AcDbLine
 10
115.1506859999999
 20
-59.38201399999989
 30
0.0
 11
113.0040599999999
 21
-61.13472599999989
 31
0.0
  0
LINE
  5
523A
330
A
100
AcDbEntity
  8
0
  6
Continuous
 62
     9
100
AcDbLine
 10
166.3119209999999
 20
-69.82525699999988
 30
0.0
 11
115.1506859999999
 21
-59.38201399999989
 31
0.0
  0
ELLIPSE
  5
523B
330
A
100
AcDbEntity
  8
0
  6
Continuous
 62
     9
100
AcDbEllipse
 10
165.2386079999999
 20
-70.70161299999988
 30
0.0
 11
-2.400000000000009
 21
-0.0000000007514545
 31
0.0000000000000002
210
0.0000000000000001
220
0.0
230
1.0
 40
0.4082480000000002
 41
2.677945044461035
 42
4.248741371256238
  0
LINE
  5
523C
330
A
100
AcDbEntity
  8
0
  6
Continuous
 62
     9
100
AcDbLine
 10
168.1007749999999
 20
-75.6359359999999
 30
0.0
 11
168.1007749999999
 21
-72.01614799999987
 31
0.0
  0
ELLIPSE
  5
523D
330
A
100
AcDbEntity
  8
0
  6
Continuous
 62
     9
100
AcDbEllipse
 10
165.2386079999999
 20
-71.4319099999999
 30
0.0
 11
3.200000000000035
 21
0.0000000010019208
 31
0.0
210
0.0
220
0.0
230
1.0
 40
0.4082480000000002
 41
5.819537698050961
 42
6.283191725847752
  0
ELLIPSE
  5
523E
330
A
100
AcDbEntity
  8
0
  6
Continuous
 62
     9
100
AcDbEllipse
 10
166.3119209999999
 20
-70.5555539999999
 30
0.0
 11
-0.1599999999999935
 21
-0.7838367176905559
 31
0.0
210
0.0
220
0.0
230
1.0
 40
0.408248
 41
3.141591517948948
 42
3.605240263229831
  0
ELLIPSE
  5
523F
330
A
100
AcDbEntity
  8
0
  6
Continuous
 62
     9
100
AcDbEllipse
 10
115.1506859999999
 20
-60.11231099999989
 30
0.0
 11
0.1599999999999935
 21
0.7838367176906114
 31
0.0
210
0.0
220
0.0
230
1.0
 40
0.4082480000000002
 41
0.0
 42
0.4636476096399171
  0
ELLIPSE
  5
5240
330
A
100
AcDbEntity
  8
0
  6
Continuous
 62
     7
100
AcDbEllipse
 10
114.9717999999999
 20
-66.4658919999999
 30
0.0
 11
3.035786556672027
 21
-3.718064009982838
 31
-0.0000000000000001
210
0.0000000000000001
220
0.0
230
1.0
 40
0.816497
 41
3.171055679951297
 42
3.717120225645977
  0
ELLIPSE
  5
5241
330
A
100
AcDbEntity
  8
0
  6
Continuous
 62
     7
100
AcDbEllipse
 10
114.7929149999999
 20
-66.6119519999999
 30
0.0
 11
3.035786556671971
 21
-3.71806400998284
 31
-0.0000000000000001
210
0.0
220
-0.0000000000000001
230
1.0
 40
0.816497
 41
3.141592653589783
 42
3.674310562713718
  0
ELLIPSE
  5
5242
330
A
100
AcDbEntity
  8
0
  6
Continuous
 62
     7
100
AcDbEllipse
 10
113.0040599999999
 20
-64.42106099999991
 30
0.0
 11
2.276839917503991
 21
-2.788548007487124
 31
-0.0000000000000001
210
0.0
220
0.0
230
1.0
 40
0.816497
 41
3.141592653589786
 42
3.926990816348116
  0
ELLIPSE
  5
5243
330
A
100
AcDbEntity
  8
0
  6
Continuous
 62
     9
100
AcDbEllipse
 10
115.1506859999999
 20
-62.66834899999991
 30
0.0
 11
2.276839917503991
 21
-2.788548007487124
 31
0.0
210
0.0
220
0.0
230
1.0
 40
0.816497
 41
2.356194489553228
 42
3.141592653589792
  0
ELLIPSE
  5
5244
330
A
100
AcDbEntity
  8
0
  6
Continuous
 62
     7
100
AcDbEllipse
 10
114.7213609999999
 20
-67.51021699999988
 30
0.0
 11
-3.035786556672026
 21
3.718064009982868
 31
-0.0000000000000001
210
-0.0000000000000001
220
0.0
230
0.9999999999999998
 40
0.8164970000000002
 41
6.283185307179572
 42
6.592464417539447
  0
LINE
  5
5245
330
A
100
AcDbEntity
  8
0
  6
Continuous
 62
     7
100
AcDbLine
 10
114.7213609999999
 20
-63.128436
 30
0.0
 11
160.8738039999999
 21
-72.54926399999989
 31
0.0
  0
ELLIPSE
  5
5246
330
A
100
AcDbEntity
  8
0
  6
Continuous
 62
     7
100
AcDbEllipse
 10
160.8738039999999
 20
-76.56589599999991
 30
0.0
 11
-2.78280434361594
 21
3.408225342484194
 31
-0.0000000000000002
210
-0.0000000000000001
220
0.0
230
1.0
 40
0.816497
 41
4.01947452248324
 42
5.497787142602876
  0
LINE
  5
5247
330
A
100
AcDbEntity
  8
0
  6
Continuous
 62
     9
100
AcDbLine
 10
160.8738039999999
 20
-72.54926399999989
 30
0.0
 11
161.231575
 21
-72.25714599999992
 31
0.0
  0
LINE
  5
5248
330
A
100
AcDbEntity
  8
0
  6
Continuous
 62
     9
100
AcDbLine
 10
161.231575
 20
-72.25714599999992
 30
0.0
 11
161.589345
 21
-71.96502699999988
 31
0.0
  0
ELLIPSE
  5
5249
330
A
100
AcDbEntity
  8
0
  6
Continuous
 62
     7
100
AcDbEllipse
 10
161.589345
 20
-75.9816589999999
 30
0.0
 11
-2.782804343615996
 21
3.408225342484218
 31
-0.0000000000000002
210
-0.0000000000000001
220
0.0
230
1.0
 40
0.8164970000000002
 41
3.92699081580799
 42
5.497787142602887
  0
LINE
  5
524A
330
A
100
AcDbEntity
  8
0
  6
Continuous
 62
     9
100
AcDbLine
 10
114.7213609999999
 20
-63.128436
 30
0.0
 11
115.079131
 21
-62.83631799999991
 31
0.0
  0
LINE
  5
524B
330
A
100
AcDbEntity
  8
0
  6
Continuous
 62
     9
100
AcDbLine
 10
115.079131
 20
-62.83631799999991
 30
0.0
 11
115.4369019999999
 21
-62.54419899999989
 31
0.0
  0
LINE
  5
524C
330
A
100
AcDbEntity
  8
0
  6
Continuous
 62
     7
100
AcDbLine
 10
115.4369019999999
 20
-62.54419899999989
 30
0.0
 11
161.589345
 21
-71.96502699999988
 31
0.0
  0
ELLIPSE
  5
524D
330
A
100
AcDbEntity
  8
0
  6
Continuous
 62
     7
100
AcDbEllipse
 10
114.7213609999999
 20
-67.51021699999988
 30
0.0
 11
-3.035786556672027
 21
3.718064009982838
 31
-0.0000000000000001
210
0.0
220
0.0000000000000001
230
1.0
 40
0.816497
 41
5.497787142602898
 42
6.283185307179584
  0
ELLIPSE
  5
524E
330
A
100
AcDbEntity
  8
0
  6
Continuous
 62
     7
100
AcDbEllipse
 10
115.4369019999999
 20
-66.9259789999999
 30
0.0
 11
-3.03578655667197
 21
3.718064009982808
 31
-0.0000000000000001
210
0.0
220
0.0000000000000001
230
1.0
 40
0.8164970000000002
 41
5.497787142602891
 42
6.283185307179584
  0
LINE
  5
524F
330
A
100
AcDbEntity
  8
0
  6
Continuous
 62
     7
100
AcDbLine
 10
115.079131
 20
-62.83631799999991
 30
0.0
 11
161.231575
 21
-72.25714599999992
 31
0.0
  0
ELLIPSE
  5
5250
330
A
100
AcDbEntity
  8
0
  6
Continuous
 62
     7
100
AcDbEllipse
 10
161.231575
 20
-76.27377799999988
 30
0.0
 11
-2.782804343615996
 21
3.40822534248425
 31
0.0000000000000001
210
0.0000000000000001
220
0.0
230
1.0
 40
0.816497
 41
3.976172625645721
 42
5.497787142598501
  0
LINE
  5
5251
330
A
100
AcDbEntity
  8
0
  6
Continuous
 62
     9
100
AcDbLine
 10
161.231575
 20
-72.25714599999992
 30
0.0
 11
161.589345
 21
-71.96502699999988
 31
0.0
  0
ELLIPSE
  5
5252
330
A
100
AcDbEntity
  8
0
  6
Continuous
 62
     7
100
AcDbEllipse
 10
161.589345
 20
-75.9816589999999
 30
0.0
 11
-2.782804343615996
 21
3.408225342484218
 31
0.0000000000000001
210
0.0000000000000001
220
0.0
230
1.0
 40
0.8164970000000002
 41
3.926990815803615
 42
5.497787142598498
  0
LINE
  5
5253
330
A
100
AcDbEntity
  8
0
  6
Continuous
 62
     9
100
AcDbLine
 10
115.079131
 20
-62.83631799999991
 30
0.0
 11
115.4369019999999
 21
-62.54419899999989
 31
0.0
  0
LINE
  5
5254
330
A
100
AcDbEntity
  8
0
  6
Continuous
 62
     7
100
AcDbLine
 10
115.4369019999999
 20
-62.54419899999989
 30
0.0
 11
161.589345
 21
-71.96502699999988
 31
0.0
  0
ELLIPSE
  5
5255
330
A
100
AcDbEntity
  8
0
  6
Continuous
 62
     7
100
AcDbEllipse
 10
115.079131
 20
-67.2180979999999
 30
0.0
 11
-3.035786556672026
 21
3.718064009982811
 31
-0.0000000000000003
210
-0.0000000000000001
220
0.0
230
0.9999999999999998
 40
0.8164970000000002
 41
5.497787142598501
 42
6.283185307179584
  0
ELLIPSE
  5
5256
330
A
100
AcDbEntity
  8
0
  6
Continuous
 62
     7
100
AcDbEllipse
 10
115.4369019999999
 20
-66.9259789999999
 30
0.0
 11
-3.035786556672027
 21
3.718064009982838
 31
-0.0000000000000003
210
-0.0000000000000001
220
0.0
230
1.0
 40
0.816497
 41
5.497787142598495
 42
6.283185307179584
  0
ELLIPSE
  5
5257
330
A
100
AcDbEntity
  8
0
  6
Continuous
 62
     7
100
AcDbEllipse
 10
177.689035
 20
-82.91947799999986
 30
0.0
 11
0.2800000000000025
 21
1.371714255958556
 31
-0.0000000000000001
210
0.0
220
0.0000000000000001
230
1.0
 40
0.4082480000000001
 41
3.605240262590616
 42
5.176036590023563
  0
ELLIPSE
  5
5258
330
A
100
AcDbEntity
  8
0
  6
Continuous
 62
     7
100
AcDbEllipse
 10
177.689035
 20
-82.91947799999986
 30
0.0
 11
0.2800000000000025
 21
1.371714255958556
 31
-0.0000000000000001
210
0.0
220
0.0000000000000001
230
1.0
 40
0.4082480000000001
 41
5.819537698178755
 42
9.888425569770202
  0
ELLIPSE
  5
5259
330
A
100
AcDbEntity
  8
0
  6
Continuous
 62
     7
100
AcDbEllipse
 10
177.689035
 20
-82.91947799999986
 30
0.0
 11
0.2800000000000025
 21
1.371714255958556
 31
-0.0000000000000001
210
0.0
220
0.0000000000000001
230
1.0
 40
0.4082480000000001
 41
5.176036590023563
 42
5.819537698178755
  0
ELLIPSE
  5
525A
330
A
100
AcDbEntity
  8
0
  6
Continuous
 62
     7
100
AcDbEllipse
 10
163.3781999999999
 20
-139.8826239999999
 30
0.0
 11
0.2800000000000025
 21
1.371714255958556
 31
-0.0000000000000001
210
0.0
220
0.0000000000000001
230
1.0
 40
0.4082480000000001
 41
3.605240262590584
 42
5.176036590023548
  0
ELLIPSE
  5
525B
330
A
100
AcDbEntity
  8
0
  6
Continuous
 62
     7
100
AcDbEllipse
 10
163.3781999999999
 20
-139.8826239999999
 30
0.0
 11
0.2800000000000025
 21
1.371714255958556
 31
-0.0000000000000001
210
0.0
220
0.0000000000000001
230
1.0
 40
0.4082480000000001
 41
5.819537698178762
 42
9.88842556977017
  0
ELLIPSE
  5
525C
330
A
100
AcDbEntity
  8
0
  6
Continuous
 62
     7
100
AcDbEllipse
 10
163.3781999999999
 20
-139.8826239999999
 30
0.0
 11
0.2800000000000025
 21
1.371714255958556
 31
-0.0000000000000001
210
0.0
220
0.0000000000000001
230
1.0
 40
0.4082480000000001
 41
5.176036590023548
 42
5.819537698178762
  0
ELLIPSE
  5
525D
330
A
100
AcDbEntity
  8
0
  6
Continuous
 62
     7
100
AcDbEllipse
 10
143.71869
 20
-101.9108449999998
 30
0.0
 11
-4.560000000000004
 21
-0.0000000051482429
 31
0.0
210
0.0
220
0.0
230
1.0
 40
0.4082480000000002
 41
3.605240265356143
 42
3.745284746561681
  0
ELLIPSE
  5
525E
330
A
100
AcDbEntity
  8
0
  6
Continuous
 62
     7
100
AcDbEllipse
 10
143.71869
 20
-101.9108449999998
 30
0.0
 11
4.240000000000021
 21
0.0000000047869764
 31
-0.0000000000000003
210
0.0000000000000001
220
0.0
230
1.0
 40
0.4082480000000002
 41
5.819537695413253
 42
5.992286801876191
  0
ELLIPSE
  5
525F
330
A
100
AcDbEntity
  8
0
  6
Continuous
 62
     7
100
AcDbEllipse
 10
143.71869
 20
-101.9108449999998
 30
0.0
 11
4.240000000000021
 21
0.0000000047869764
 31
0.0
210
0.0
220
0.0
230
1.0
 40
0.4082480000000002
 41
0.2908985046372462
 42
0.5616225885258049
  0
ELLIPSE
  5
5260
330
A
100
AcDbEntity
  8
0
  6
Continuous
 62
     7
100
AcDbEllipse
 10
143.71869
 20
-101.9108449999998
 30
0.0
 11
4.240000000000021
 21
0.0000000047869764
 31
0.0000000000000003
210
-0.0000000000000001
220
0.0
230
1.0
 40
0.4082480000000002
 41
5.411554433848039
 42
5.819537695413242
  0
ELLIPSE
  5
5261
330
A
100
AcDbEntity
  8
0
  6
Continuous
 62
     7
100
AcDbEllipse
 10
143.71869
 20
-102.1299339999999
 30
0.0
 11
-4.000000000000004
 21
-0.0000000045159987
 31
0.0
210
0.0
220
-0.0000000000000001
230
1.0
 40
0.4082480000000002
 41
2.737104856052944
 42
3.141592653589786
  0
ELLIPSE
  5
5262
330
A
100
AcDbEntity
  8
0
  6
Continuous
 62
     7
100
AcDbEllipse
 10
143.71869
 20
-102.1299339999999
 30
0.0
 11
-4.000000000000004
 21
-0.0000000045160264
 31
0.0000000000000003
210
0.0000000000000001
220
0.0
230
1.0
 40
0.4082480000000002
 41
3.362566882557982
 42
3.736651616337784
  0
ELLIPSE
  5
5263
330
A
100
AcDbEntity
  8
0
  6
Continuous
 62
     7
100
AcDbEllipse
 10
143.71869
 20
-102.1299339999999
 30
0.0
 11
-4.000000000000004
 21
-0.0000000045159987
 31
0.0
210
0.0
220
0.0000000000000001
230
1.0
 40
0.4082480000000002
 41
3.141592653589792
 42
3.362566882557998
  0
ELLIPSE
  5
5264
330
A
100
AcDbEntity
  8
0
  6
Continuous
 62
     7
100
AcDbEllipse
 10
143.71869
 20
-109.7250199999999
 30
0.0
 11
-4.800000000000026
 21
-0.0000000054192206
 31
0.0
210
0.0
220
0.0
230
1.0
 40
0.4082480000000002
 41
1.548433782249738
 42
1.604116390620563
  0
ELLIPSE
  5
5265
330
A
100
AcDbEntity
  8
0
  6
Continuous
 62
     7
100
AcDbEllipse
 10
143.71869
 20
-109.9441089999999
 30
0.0
 11
4.560000000000004
 21
0.0000000051482568
 31
0.0
210
0.0
220
0.0
230
1.0
 40
0.4082480000000002
 41
4.688849247789764
 42
4.747463433240214
  0
ELLIPSE
  5
5266
330
A
100
AcDbEntity
  8
0
  6
Continuous
 62
     9
100
AcDbEllipse
 10
143.71869
 20
-95.70332199999986
 30
0.0
 11
2.400000000000009
 21
0.0000000016694979
 31
0.0
210
0.0
220
-0.0000000000000001
230
1.0
 40
0.4082480000000002
 41
5.218159227998873
 42
6.283200048756655
  0
ELLIPSE
  5
5267
330
A
100
AcDbEntity
  8
0
  6
Continuous
 62
     9
100
AcDbEllipse
 10
143.71869
 20
-116.1516309999998
 30
0.0
 11
-2.399999999999957
 21
-0.0000000016694979
 31
0.0
210
0.0
220
0.0
230
1.0
 40
0.4082480000000002
 41
2.07656657068359
 42
2.69860822214727
  0
ELLIPSE
  5
5268
330
A
100
AcDbEntity
  8
0
  6
Continuous
 62
     7
100
AcDbEllipse
 10
143.71869
 20
-102.6411419999999
 30
0.0
 11
-3.999999999999948
 21
-0.0000000036492476
 31
0.0
210
0.0
220
0.0
230
1.0
 40
0.4082480000000002
 41
3.298763597900571
 42
4.068887871502933
  0
ELLIPSE
  5
5269
330
A
100
AcDbEntity
  8
0
  6
Continuous
 62
     7
100
AcDbEllipse
 10
143.71869
 20
-102.6411419999999
 30
0.0
 11
2.400000000000009
 21
0.0000000021895541
 31
0.0
210
0.0
220
0.0
230
1.0
 40
0.4082480000000002
 41
5.218159226646402
 42
6.283185307179607
  0
ELLIPSE
  5
526A
330
A
100
AcDbEntity
  8
0
  6
Continuous
 62
     7
100
AcDbEllipse
 10
172.5907999999999
 20
-109.3562199999999
 30
0.0
 11
-0.560000000000005
 21
-2.743428511917139
 31
0.0
210
0.0
220
0.0
230
1.0
 40
0.4082480000000002
 41
2.701390280938703
 42
3.141592653589796
  0
ELLIPSE
  5
526B
330
A
100
AcDbEntity
  8
0
  6
Continuous
 62
     7
100
AcDbEllipse
 10
172.5907999999999
 20
-109.3562199999999
 30
0.0
 11
-0.560000000000005
 21
-2.743428511917139
 31
0.0
210
0.0
220
0.0
230
1.0
 40
0.4082480000000002
 41
2.034443936433893
 42
2.701390280938703
  0
ELLIPSE
  5
526C
330
A
100
AcDbEntity
  8
0
  6
Continuous
 62
     7
100
AcDbEllipse
 10
172.5907999999999
 20
-109.3562199999999
 30
0.0
 11
-0.560000000000005
 21
-2.743428511917139
 31
0.0
210
0.0
220
0.0
230
1.0
 40
0.4082480000000002
 41
3.141592653589796
 42
6.283185307179584
  0
ELLIPSE
  5
526D
330
A
100
AcDbEntity
  8
0
  6
Continuous
 62
     7
100
AcDbEllipse
 10
172.5907999999999
 20
-109.3562199999999
 30
0.0
 11
-0.560000000000005
 21
-2.743428511917139
 31
0.0000000000000002
210
0.0
220
0.0000000000000001
230
1.0
 40
0.4082480000000002
 41
1.367497591928122
 42
2.034443936433893
  0
ELLIPSE
  5
526E
330
A
100
AcDbEntity
  8
0
  6
Continuous
 62
     7
100
AcDbEllipse
 10
172.5907999999999
 20
-109.3562199999999
 30
0.0
 11
-0.560000000000005
 21
-2.743428511917139
 31
0.0
210
0.0
220
0.0
230
1.0
 40
0.4082480000000002
 41
0.0
 42
1.367497591928122
  0
LINE
  5
526F
330
A
100
AcDbEntity
  8
0
  6
Continuous
 62
     7
100
AcDbLine
 10
172.0541439999999
 20
-109.1619429999999
 30
0.0
 11
172.5907999999999
 21
-108.0913089999999
 31
0.0
  0
LINE
  5
5270
330
A
100
AcDbEntity
  8
0
  6
Continuous
 62
     7
100
AcDbLine
 10
172.0541439999999
 20
-110.4268539999999
 30
0.0
 11
172.0541439999999
 21
-109.1619429999999
 31
0.0
  0
LINE
  5
5271
330
A
100
AcDbEntity
  8
0
  6
Continuous
 62
     7
100
AcDbLine
 10
172.5907999999999
 20
-110.6211309999999
 30
0.0
 11
172.0541439999999
 21
-110.4268539999999
 31
0.0
  0
LINE
  5
5272
330
A
100
AcDbEntity
  8
0
  6
Continuous
 62
     7
100
AcDbLine
 10
173.1274559999999
 20
-109.5504979999999
 30
0.0
 11
172.5907999999999
 21
-110.6211309999999
 31
0.0
  0
LINE
  5
5273
330
A
100
AcDbEntity
  8
0
  6
Continuous
 62
     7
100
AcDbLine
 10
173.1274559999999
 20
-108.2855859999999
 30
0.0
 11
173.1274559999999
 21
-109.5504979999999
 31
0.0
  0
LINE
  5
5274
330
A
100
AcDbEntity
  8
0
  6
Continuous
 62
     7
100
AcDbLine
 10
172.5907999999999
 20
-108.0913089999999
 30
0.0
 11
173.1274559999999
 21
-108.2855859999999
 31
0.0
  0
LINE
  5
5275
330
A
100
AcDbEntity
  8
0
  6
Continuous
 62
     7
100
AcDbLine
 10
173.1274559999999
 20
-108.2855859999999
 30
0.0
 11
172.55227
 21
-108.1681769999999
 31
0.0
  0
LINE
  5
5276
330
A
100
AcDbEntity
  8
0
  6
Continuous
 62
     7
100
AcDbLine
 10
173.1274559999999
 20
-109.5504979999999
 30
0.0
 11
172.0541439999999
 21
-109.3314089999999
 31
0.0
  0
LINE
  5
5277
330
A
100
AcDbEntity
  8
0
  6
Continuous
 62
     7
100
AcDbLine
 10
167.2242370000001
 20
-113.1055449999999
 30
0.0
 11
167.7608929999999
 21
-112.0349109999999
 31
0.0
  0
LINE
  5
5278
330
A
100
AcDbEntity
  8
0
  6
Continuous
 62
     7
100
AcDbLine
 10
167.2242370000001
 20
-114.3704559999999
 30
0.0
 11
167.2242370000001
 21
-113.1055449999999
 31
0.0
  0
LINE
  5
5279
330
A
100
AcDbEntity
  8
0
  6
Continuous
 62
     7
100
AcDbLine
 10
167.7608929999999
 20
-114.5647339999999
 30
0.0
 11
167.2242370000001
 21
-114.3704559999999
 31
0.0
  0
LINE
  5
527A
330
A
100
AcDbEntity
  8
0
  6
Continuous
 62
     7
100
AcDbLine
 10
168.297549
 20
-113.4940999999999
 30
0.0
 11
167.7608929999999
 21
-114.5647339999999
 31
0.0
  0
LINE
  5
527B
330
A
100
AcDbEntity
  8
0
  6
Continuous
 62
     7
100
AcDbLine
 10
168.297549
 20
-112.2291889999999
 30
0.0
 11
168.297549
 21
-113.4940999999999
 31
0.0
  0
LINE
  5
527C
330
A
100
AcDbEntity
  8
0
  6
Continuous
 62
     7
100
AcDbLine
 10
167.7608929999999
 20
-112.0349109999999
 30
0.0
 11
168.297549
 21
-112.2291889999999
 31
0.0
  0
ELLIPSE
  5
527D
330
A
100
AcDbEntity
  8
0
  6
Continuous
 62
     7
100
AcDbEllipse
 10
167.7608929999999
 20
-113.2998219999999
 30
0.0
 11
-0.560000000000005
 21
-2.743428511917139
 31
0.0000000000000002
210
0.0
220
0.0000000000000001
230
1.0
 40
0.4082480000000002
 41
0.0
 42
2.034443936433893
  0
ELLIPSE
  5
527E
330
A
100
AcDbEntity
  8
0
  6
Continuous
 62
     7
100
AcDbEllipse
 10
167.7608929999999
 20
-113.2998219999999
 30
0.0
 11
-0.560000000000005
 21
-2.743428511917139
 31
0.0
210
0.0
220
0.0
230
1.0
 40
0.4082480000000002
 41
2.034443936433893
 42
3.141592653589796
  0
ELLIPSE
  5
527F
330
A
100
AcDbEntity
  8
0
  6
Continuous
 62
     7
100
AcDbEllipse
 10
167.7608929999999
 20
-113.2998219999999
 30
0.0
 11
-0.560000000000005
 21
-2.743428511917139
 31
0.0
210
0.0
220
0.0
230
1.0
 40
0.4082480000000002
 41
6.048610443336973
 42
6.283185307179584
  0
ELLIPSE
  5
5280
330
A
100
AcDbEntity
  8
0
  6
Continuous
 62
     7
100
AcDbEllipse
 10
167.7608929999999
 20
-113.2998219999999
 30
0.0
 11
-0.560000000000005
 21
-2.743428511917139
 31
0.0
210
0.0
220
0.0
230
1.0
 40
0.4082480000000002
 41
3.141592653589796
 42
4.303462736712265
  0
LINE
  5
5281
330
A
100
AcDbEntity
  8
0
  6
Continuous
 62
     7
100
AcDbLine
 10
168.297549
 20
-112.2291889999999
 30
0.0
 11
167.722363
 21
-112.1117789999999
 31
0.0
  0
LINE
  5
5282
330
A
100
AcDbEntity
  8
0
  6
Continuous
 62
     7
100
AcDbLine
 10
168.297549
 20
-113.4940999999999
 30
0.0
 11
167.2242370000001
 21
-113.2750109999999
 31
0.0
  0
LINE
  5
5283
330
A
100
AcDbEntity
  8
0
  6
Continuous
 62
     7
100
AcDbLine
 10
143.1820339999999
 20
-105.2519519999999
 30
0.0
 11
143.1820339999999
 21
-113.7416519999999
 31
0.0
  0
LINE
  5
5284
330
A
100
AcDbEntity
  8
0
  6
Continuous
 62
     7
100
AcDbLine
 10
145.8653149999999
 20
-122.0670349999998
 30
0.0
 11
147.7805529999999
 21
-120.5032499999999
 31
0.0
  0
LINE
  5
5285
330
A
100
AcDbEntity
  8
0
  6
Continuous
 62
     7
100
AcDbLine
 10
145.8653149999999
 20
-124.7326179999999
 30
0.0
 11
145.8653149999999
 21
-122.0670349999998
 31
0.0
  0
LINE
  5
5286
330
A
100
AcDbEntity
  8
0
  6
Continuous
 62
     7
100
AcDbLine
 10
145.489656
 20
-125.0393429999999
 30
0.0
 11
145.8653149999999
 21
-124.7326179999999
 31
0.0
  0
LINE
  5
5287
330
A
100
AcDbEntity
  8
0
  6
Continuous
 62
     7
100
AcDbLine
 10
145.1497810000001
 20
-123.3815699999999
 30
0.0
 11
145.1497810000001
 21
-124.2214119999999
 31
0.0
  0
ELLIPSE
  5
5288
330
A
100
AcDbEntity
  8
0
  6
Continuous
 62
     7
100
AcDbEllipse
 10
144.7920099999999
 20
-123.6736889999999
 30
0.0
 11
-0.1600000000391844
 21
-0.7838367176826595
 31
0.0000000000000001
210
0.0
220
0.0000000000000001
230
0.9999999999999996
 40
0.4082480000000002
 41
3.141592653589562
 42
3.352580668536118
  0
LINE
  5
5289
330
A
100
AcDbEntity
  8
0
  6
Continuous
 62
     7
100
AcDbLine
 10
143.6113589999999
 20
-112.4052089999999
 30
0.0
 11
143.8785969999999
 21
-112.1870099999999
 31
0.0
  0
LINE
  5
528A
330
A
100
AcDbEntity
  8
0
  6
Continuous
 62
     7
100
AcDbLine
 10
144.881445
 20
-118.1234319999999
 30
0.0
 11
146.3967299999999
 21
-116.8862069999999
 31
0.0
  0
LINE
  5
528B
330
A
100
AcDbEntity
  8
0
  6
Continuous
 62
     7
100
AcDbLine
 10
146.9386279999999
 20
-101.2900929999999
 30
0.0
 11
147.7805529999999
 21
-100.6026639999999
 31
0.0
  0
LINE
  5
528C
330
A
100
AcDbEntity
  8
0
  6
Continuous
 62
     7
100
AcDbLine
 10
146.9386279999999
 20
-101.2900929999999
 30
0.0
 11
146.9386279999999
 21
-94.53484799999987
 31
0.0
  0
LINE
  5
528D
330
A
100
AcDbEntity
  8
0
  6
Continuous
 62
     7
100
AcDbLine
 10
144.881445
 20
-96.21452999999988
 30
0.0
 11
146.9386279999999
 21
-94.53484799999987
 31
0.0
  0
LINE
  5
528E
330
A
100
AcDbEntity
  8
0
  6
Continuous
 62
     7
100
AcDbLine
 10
143.6113589999999
 20
-104.9014099999999
 30
0.0
 11
143.6113589999999
 21
-112.4052089999999
 31
0.0
  0
LINE
  5
528F
330
A
100
AcDbEntity
  8
0
  6
Continuous
 62
     7
100
AcDbLine
 10
146.9386279999999
 20
-101.2900929999999
 30
0.0
 11
146.1186900000001
 21
-101.1227229999999
 31
0.0
  0
ELLIPSE
  5
5290
330
A
100
AcDbEntity
  8
0
  6
Continuous
 62
     7
100
AcDbEllipse
 10
144.7920099999999
 20
-123.6736889999999
 30
0.0
 11
-0.1600000000391844
 21
-0.7838367176826595
 31
0.0000000000000001
210
0.0
220
0.0000000000000001
230
0.9999999999999996
 40
0.4082480000000002
 41
2.034443936793588
 42
3.141592653589496
  0
LINE
  5
5291
330
A
100
AcDbEntity
  8
0
  6
Continuous
 62
     9
100
AcDbLine
 10
145.1497810000001
 20
-123.3815699999999
 30
0.0
 11
144.881445
 21
-123.3267969999999
 31
0.0
  0
LINE
  5
5292
330
A
100
AcDbEntity
  8
0
  6
Continuous
 62
     7
100
AcDbLine
 10
160.694918
 20
-155.9491519999999
 30
0.0
 11
160.694918
 21
-82.91947799999986
 31
0.0
  0
LINE
  5
5293
330
A
100
AcDbEntity
  8
0
  6
Continuous
 62
     7
100
AcDbLine
 10
160.694918
 20
-155.9491519999999
 30
0.0
 11
157.1172089999999
 21
-155.2188559999999
 31
0.0
  0
LINE
  5
5294
330
A
100
AcDbEntity
  8
0
  6
Continuous
 62
     7
100
AcDbLine
 10
157.1172089999999
 20
-155.2188559999999
 30
0.0
 11
157.1172089999999
 21
-82.18918100000001
 31
0.0
  0
LINE
  5
5295
330
A
100
AcDbEntity
  8
0
  6
Continuous
 62
     7
100
AcDbLine
 10
160.694918
 20
-82.91947799999986
 30
0.0
 11
157.1172089999999
 21
-82.18918100000001
 31
0.0
  0
ELLIPSE
  5
5296
330
A
100
AcDbEntity
  8
0
  6
Continuous
 62
     7
100
AcDbEllipse
 10
170.354732
 20
-70.28534399999988
 30
0.0
 11
-1.199999999999978
 21
-0.0000000003757272
 31
-0.0000000000000001
210
-0.0000000000000001
220
0.0
230
1.0
 40
0.4082480000000002
 41
2.145762633807021
 42
2.677945044461204
  0
LINE
  5
5297
330
A
100
AcDbEntity
  8
0
  6
Continuous
 62
     7
100
AcDbLine
 10
171.4280439999999
 20
-70.50443299999992
 30
0.0
 11
176.794608
 21
-66.1226529999999
 31
0.0
  0
LINE
  5
5298
330
A
100
AcDbEntity
  8
0
  6
Continuous
 62
     7
100
AcDbLine
 10
176.794608
 20
-66.1226529999999
 30
0.0
 11
180.3723159999999
 21
-66.85294999999988
 31
0.0
  0
LINE
  5
5299
330
A
100
AcDbEntity
  8
0
  6
Continuous
 62
     7
100
AcDbLine
 10
180.3723159999999
 20
-66.85294999999988
 30
0.0
 11
174.1113259999999
 21
-71.96502699999988
 31
0.0
  0
LINE
  5
529A
330
A
100
AcDbEntity
  8
0
  6
Continuous
 62
     7
100
AcDbLine
 10
174.1113259999999
 20
-71.96502699999988
 30
0.0
 11
173.57467
 21
-72.0380559999999
 31
0.0
  0
LINE
  5
529B
330
A
100
AcDbEntity
  8
0
  6
Continuous
 62
     7
100
AcDbLine
 10
173.57467
 20
-72.0380559999999
 30
0.0
 11
166.7770229999999
 21
-77.58831199999992
 31
0.0
  0
LINE
  5
529C
330
A
100
AcDbEntity
  8
0
  6
Continuous
 62
     7
100
AcDbLine
 10
166.7770229999999
 20
-77.58831199999992
 30
0.0
 11
166.955909
 21
-77.8074009999999
 31
0.0
  0
LINE
  5
529D
330
A
100
AcDbEntity
  8
0
  6
Continuous
 62
     7
100
AcDbLine
 10
166.955909
 20
-77.8074009999999
 30
0.0
 11
160.694918
 21
-82.91947799999986
 31
0.0
  0
LINE
  5
529E
330
A
100
AcDbEntity
  8
0
  6
Continuous
 62
     7
100
AcDbLine
 10
157.1172089999999
 20
-82.18918100000001
 30
0.0
 11
162.4837729999999
 21
-77.8074009999999
 31
0.0
  0
ELLIPSE
  5
529F
330
A
100
AcDbEntity
  8
0
  6
Continuous
 62
     7
100
AcDbEllipse
 10
161.4104599999999
 20
-77.58831199999992
 30
0.0
 11
-1.199999999999978
 21
-0.0000000003757272
 31
0.0000000000000001
210
0.0000000000000001
220
0.0
230
1.0
 40
0.4082480000000002
 41
2.677945044461225
 42
3.141592653589884
  0
ELLIPSE
  5
52A0
330
A
100
AcDbEntity
  8
0
  6
Continuous
 62
     7
100
AcDbEllipse
 10
155.221024
 20
-71.76054399999988
 30
0.0
 11
-16.00000000000002
 21
-0.0000000050096316
 31
0.0000000000000011
210
0.0000000000000001
220
0.0
230
1.0
 40
0.4082480000000002
 41
2.050666133360738
 42
3.141592653589801
  0
LINE
  5
52A1
330
A
100
AcDbEntity
  8
0
  6
Continuous
 62
     7
100
AcDbLine
 10
166.955909
 20
-150.8370749999999
 30
0.0
 11
160.694918
 21
-155.9491519999999
 31
0.0
  0
LINE
  5
52A2
330
A
100
AcDbEntity
  8
0
  6
Continuous
 62
     7
100
AcDbLine
 10
166.955909
 20
-113.3735549999999
 30
0.0
 11
166.955909
 21
-77.8074009999999
 31
0.0
  0
ELLIPSE
  5
52A3
330
A
100
AcDbEntity
  8
0
  6
Continuous
 62
     7
100
AcDbEllipse
 10
168.118664
 20
-113.3728519999999
 30
0.0
 11
-0.560000000000005
 21
-2.743428511917139
 31
0.0
210
0.0
220
0.0
230
1.0
 40
0.4082480000000002
 41
4.795785383331704
 42
5.556287796717477
  0
LINE
  5
52A4
330
A
100
AcDbEntity
  8
0
  6
Continuous
 62
     7
100
AcDbLine
 10
166.955909
 20
-150.8370749999999
 30
0.0
 11
166.955909
 21
-115.2709209999999
 31
0.0
  0
ELLIPSE
  5
52A5
330
A
100
AcDbEntity
  8
0
  6
Continuous
 62
     7
100
AcDbEllipse
 10
163.3781999999999
 20
-146.4552949999998
 30
0.0
 11
-0.42399999999998
 21
-2.077167301880149
 31
0.0
210
0.0
220
0.0
230
1.0
 40
0.4082480000000002
 41
3.141592653590037
 42
3.605240263229908
  0
ELLIPSE
  5
52A6
330
A
100
AcDbEntity
  8
0
  6
Continuous
 62
     7
100
AcDbEllipse
 10
163.3781999999999
 20
-88.0315549999999
 30
0.0
 11
-0.42399999999998
 21
-2.077167301880121
 31
0.0
210
0.0
220
0.0
230
1.0
 40
0.4082480000000002
 41
3.141592653589886
 42
3.605240263229865
  0
ELLIPSE
  5
52A7
330
A
100
AcDbEntity
  8
0
  6
Continuous
 62
     7
100
AcDbEllipse
 10
163.3781999999999
 20
-139.8826239999999
 30
0.0
 11
-0.336000000000003
 21
-1.64605710715028
 31
0.0
210
0.0
220
0.0
230
1.0
 40
0.4082480000000002
 41
3.141592653589983
 42
3.605240263229857
  0
ELLIPSE
  5
52A8
330
A
100
AcDbEntity
  8
0
  6
Continuous
 62
     7
100
AcDbEllipse
 10
163.3781999999999
 20
-94.60422599999986
 30
0.0
 11
-0.336000000000003
 21
-1.646057107150266
 31
0.0
210
0.0
220
0.0
230
1.0
 40
0.4082480000000002
 41
3.141592653589917
 42
3.605240263229851
  0
ELLIPSE
  5
52A9
330
A
100
AcDbEntity
  8
0
  6
Continuous
 62
     7
100
AcDbEllipse
 10
162.126002
 20
-87.7759509999999
 30
0.0
 11
0.42399999999998
 21
2.077167301880121
 31
0.0
210
0.0
220
0.0
230
1.0
 40
0.4082480000000002
 41
3.972175111022191
 42
5.452602849735613
  0
ELLIPSE
  5
52AA
330
A
100
AcDbEntity
  8
0
  6
Continuous
 62
     7
100
AcDbEllipse
 10
163.3781999999999
 20
-88.0315549999999
 30
0.0
 11
-0.42399999999998
 21
-2.077167301880121
 31
0.0
210
0.0
220
0.0
230
1.0
 40
0.4082480000000002
 41
3.605240263229696
 42
6.283185307179611
  0
ELLIPSE
  5
52AB
330
A
100
AcDbEntity
  8
0
  6
Continuous
 62
     7
100
AcDbEllipse
 10
163.3781999999999
 20
-88.0315549999999
 30
0.0
 11
-0.42399999999998
 21
-2.077167301880121
 31
0.0
210
0.0
220
0.0
230
1.0
 40
0.4082480000000002
 41
0.0000000000000258
 42
3.141592653589818
  0
ELLIPSE
  5
52AC
330
A
100
AcDbEntity
  8
0
  6
Continuous
 62
     7
100
AcDbEllipse
 10
163.3781999999999
 20
-94.60422599999986
 30
0.0
 11
-0.336000000000003
 21
-1.646057107150266
 31
0.0
210
0.0
220
0.0
230
1.0
 40
0.4082480000000002
 41
3.605240263229704
 42
6.283185307179584
  0
ELLIPSE
  5
52AD
330
A
100
AcDbEntity
  8
0
  6
Continuous
 62
     7
100
AcDbEllipse
 10
163.3781999999999
 20
-94.60422599999986
 30
0.0
 11
-0.336000000000003
 21
-1.646057107150266
 31
0.0000000000000001
210
0.0
220
0.0000000000000001
230
1.0
 40
0.4082480000000002
 41
0.0
 42
3.141592653589798
  0
ELLIPSE
  5
52AE
330
A
100
AcDbEntity
  8
0
  6
Continuous
 62
     7
100
AcDbEllipse
 10
155.221024
 20
-71.76054399999988
 30
0.0
 11
-16.00000000000002
 21
-0.0000000050096316
 31
0.0
210
0.0
220
0.0000000000000001
230
1.0
 40
0.4082480000000002
 41
3.1415926535898
 42
3.305223955561586
  0
LINE
  5
52AF
330
A
100
AcDbEntity
  8
0
  6
Continuous
 62
     7
100
AcDbLine
 10
162.607643
 20
-77.55476299999988
 30
0.0
 11
162.607643
 21
-77.62186099999991
 31
0.0
  0
LINE
  5
52B0
330
A
100
AcDbEntity
  8
0
  6
Continuous
 62
     7
100
AcDbLine
 10
171.0072999999999
 20
-72.82461599999989
 30
0.0
 11
171.0072999999999
 21
-70.6964719999999
 31
0.0
  0
ELLIPSE
  5
52B1
330
A
100
AcDbEntity
  8
0
  6
Continuous
 62
     7
100
AcDbEllipse
 10
161.4104599999999
 20
-77.58831199999992
 30
0.0
 11
-1.199999999999978
 21
-0.0000000003757272
 31
-0.0000000000000001
210
-0.0000000000000001
220
0.0000000000000001
230
1.0
 40
0.4082480000000002
 41
3.141592653589861
 42
3.21012745511547
  0
LINE
  5
52B2
330
A
100
AcDbEntity
  8
0
  6
Continuous
 62
     7
100
AcDbLine
 10
173.57467
 20
-145.0677309999998
 30
0.0
 11
166.955909
 21
-150.4719269999999
 31
0.0
  0
ELLIPSE
  5
52B3
330
A
100
AcDbEntity
  8
0
  6
Continuous
 62
     7
100
AcDbEllipse
 10
167.7608929999999
 20
-113.2998219999999
 30
0.0
 11
-0.560000000000005
 21
-2.743428511917139
 31
0.0
210
0.0
220
0.0
230
1.0
 40
0.4082480000000002
 41
3.141592653589928
 42
4.303462736711805
  0
LINE
  5
52B4
330
A
100
AcDbEntity
  8
0
  6
Continuous
 62
     7
100
AcDbLine
 10
173.57467
 20
-106.9717549999999
 30
0.0
 11
173.57467
 21
-72.0380559999999
 31
0.0
  0
ELLIPSE
  5
52B5
330
A
100
AcDbEntity
  8
0
  6
Continuous
 62
     7
100
AcDbEllipse
 10
172.5907999999999
 20
-109.3562199999999
 30
0.0
 11
-0.560000000000005
 21
-2.743428511917139
 31
0.0
210
0.0
220
0.0
230
1.0
 40
0.4082480000000002
 41
0.0000000000000675
 42
1.367497591931028
  0
LINE
  5
52B6
330
A
100
AcDbEntity
  8
0
  6
Continuous
 62
     7
100
AcDbLine
 10
173.57467
 20
-145.0677309999998
 30
0.0
 11
173.57467
 21
-110.1340319999999
 31
0.0
  0
LINE
  5
52B7
330
A
100
AcDbEntity
  8
0
  6
Continuous
 62
     7
100
AcDbLine
 10
157.1172089999999
 20
-95.15194799999987
 30
0.0
 11
152.645073
 21
-94.23907699999986
 31
0.0
  0
ELLIPSE
  5
52B8
330
A
100
AcDbEntity
  8
0
  6
Continuous
 62
     7
100
AcDbEllipse
 10
156.5805529999999
 20
-91.0257719999999
 30
0.0
 11
8.800000000000029
 21
0.000000002755296
 31
0.0
210
0.0
220
0.0
230
1.0
 40
0.4082480000000002
 41
3.797714560327011
 42
4.248741371256048
  0
ELLIPSE
  5
52B9
330
A
100
AcDbEntity
  8
0
  6
Continuous
 62
     7
100
AcDbEllipse
 10
156.795216
 20
-108.3045929999999
 30
0.0
 11
0.1011928852224231
 21
-0.1239354669994586
 31
0.0
210
0.0
220
0.0
230
0.9999999999999998
 40
0.816497
 41
0.7853981627583936
 42
2.356194489552815
  0
LINE
  5
52BA
330
A
100
AcDbEntity
  8
0
  6
Continuous
 62
     7
100
AcDbLine
 10
156.795216
 20
-108.1585329999999
 30
0.0
 11
152.645073
 21
-107.3113889999999
 31
0.0
  0
LINE
  5
52BB
330
A
100
AcDbEntity
  8
0
  6
Continuous
 62
     9
100
AcDbLine
 10
152.645073
 20
-107.3113889999999
 30
0.0
 11
152.645073
 21
-94.23907699999986
 31
0.0
  0
LINE
  5
52BC
330
A
100
AcDbEntity
  8
0
  6
Continuous
 62
     7
100
AcDbLine
 10
157.1172089999999
 20
-130.2061919999998
 30
0.0
 11
152.645074
 21
-129.2933209999999
 31
0.0
  0
LINE
  5
52BD
330
A
100
AcDbEntity
  8
0
  6
Continuous
 62
     9
100
AcDbLine
 10
152.645074
 20
-129.2933209999999
 30
0.0
 11
152.645073
 21
-118.4660969999999
 31
0.0
  0
LINE
  5
52BE
330
A
100
AcDbEntity
  8
0
  6
Continuous
 62
     7
100
AcDbLine
 10
174.1113259999999
 20
-107.5311809999999
 30
0.0
 11
174.1113259999999
 21
-71.96502699999988
 31
0.0
  0
ELLIPSE
  5
52BF
330
A
100
AcDbEntity
  8
0
  6
Continuous
 62
     7
100
AcDbEllipse
 10
170.6230599999999
 20
-108.9545569999998
 30
0.0
 11
-3.708087020295236
 21
-0.91403872693252
 31
0.0
210
0.0
220
0.0
230
1.0
 40
0.658331
 41
3.360968583084515
 42
3.647663720895359
  0
LINE
  5
52C0
330
A
100
AcDbEntity
  8
0
  6
Continuous
 62
     7
100
AcDbLine
 10
180.3723159999999
 20
-139.8826239999999
 30
0.0
 11
180.3723159999999
 21
-66.85294999999988
 31
0.0
  0
LINE
  5
52C1
330
A
100
AcDbEntity
  8
0
  6
Continuous
 62
     7
100
AcDbLine
 10
180.3723159999999
 20
-139.8826239999999
 30
0.0
 11
174.1113259999999
 21
-144.9947009999999
 31
0.0
  0
LINE
  5
52C2
330
A
100
AcDbEntity
  8
0
  6
Continuous
 62
     7
100
AcDbLine
 10
174.1113259999999
 20
-144.9947009999999
 30
0.0
 11
174.1113259999999
 21
-109.4285469999999
 31
0.0
  0
ELLIPSE
  5
52C3
330
A
100
AcDbEntity
  8
0
  6
Continuous
 62
     7
100
AcDbEllipse
 10
172.948571
 20
-109.4292499999999
 30
0.0
 11
-0.560000000000005
 21
-2.743428511917139
 31
0.0
210
0.0
220
0.0
230
1.0
 40
0.4082480000000002
 41
1.654192729741911
 42
2.414695143127705
  0
ELLIPSE
  5
52C4
330
A
100
AcDbEntity
  8
0
  6
Continuous
 62
     7
100
AcDbEllipse
 10
177.689035
 20
-134.7705469999999
 30
0.0
 11
-0.42399999999998
 21
-2.077167301880149
 31
0.0
210
0.0
220
0.0
230
1.0
 40
0.4082480000000002
 41
3.141592653589643
 42
5.176036590024454
  0
ELLIPSE
  5
52C5
330
A
100
AcDbEntity
  8
0
  6
Continuous
 62
     7
100
AcDbEllipse
 10
177.689035
 20
-76.34680699999989
 30
0.0
 11
-0.42399999999998
 21
-2.077167301880121
 31
0.0
210
0.0
220
0.0
230
1.0
 40
0.4082480000000002
 41
3.141592653589649
 42
5.176036590024454
  0
ELLIPSE
  5
52C6
330
A
100
AcDbEntity
  8
0
  6
Continuous
 62
     7
100
AcDbEllipse
 10
177.689035
 20
-128.1978759999999
 30
0.0
 11
-0.336000000000003
 21
-1.646057107150322
 31
0.0
210
0.0
220
0.0
230
1.0
 40
0.4082480000000002
 41
3.141592653589621
 42
5.176036590024454
  0
ELLIPSE
  5
52C7
330
A
100
AcDbEntity
  8
0
  6
Continuous
 62
     7
100
AcDbEllipse
 10
177.689035
 20
-82.91947799999986
 30
0.0
 11
-0.336000000000003
 21
-1.646057107150322
 31
0.0
210
0.0
220
0.0
230
1.0
 40
0.4082480000000002
 41
3.141592653589626
 42
5.176036590024502
  0
ELLIPSE
  5
52C8
330
A
100
AcDbEntity
  8
0
  6
Continuous
 62
     7
100
AcDbEllipse
 10
156.5805529999999
 20
-104.0980839999999
 30
0.0
 11
8.799999999999975
 21
0.0000000027553099
 31
-0.0000000000000006
210
0.0000000000000001
220
0.0
230
1.0
 40
0.4082480000000002
 41
3.141592653589786
 42
4.248741371256055
  0
ELLIPSE
  5
52C9
330
A
100
AcDbEntity
  8
0
  6
Continuous
 62
     7
100
AcDbEllipse
 10
167.7608929999999
 20
-113.2998219999999
 30
0.0
 11
-0.560000000000005
 21
-2.743428511917139
 31
0.0
210
0.0
220
0.0
230
1.0
 40
0.4082480000000002
 41
6.048610443337562
 42
6.283185307179584
  0
ELLIPSE
  5
52CA
330
A
100
AcDbEntity
  8
0
  6
Continuous
 62
     7
100
AcDbEllipse
 10
167.7608929999999
 20
-113.2998219999999
 30
0.0
 11
-0.560000000000005
 21
-2.743428511917139
 31
0.0000000000000002
210
0.0
220
0.0000000000000001
230
1.0
 40
0.4082480000000002
 41
2.034443936433874
 42
3.141592653589794
  0
ELLIPSE
  5
52CB
330
A
100
AcDbEntity
  8
0
  6
Continuous
 62
     7
100
AcDbEllipse
 10
167.7608929999999
 20
-113.2998219999999
 30
0.0
 11
-0.560000000000005
 21
-2.743428511917139
 31
0.0000000000000002
210
0.0
220
0.0000000000000001
230
1.0
 40
0.4082480000000002
 41
6.283185307179421
 42
8.317629243613307
  0
ELLIPSE
  5
52CC
330
A
100
AcDbEntity
  8
0
  6
Continuous
 62
     7
100
AcDbEllipse
 10
163.3781999999999
 20
-139.8826239999999
 30
0.0
 11
-0.336000000000003
 21
-1.64605710715028
 31
0.0000000000000001
210
0.0
220
0.0000000000000001
230
1.0
 40
0.4082480000000002
 41
3.605240263229704
 42
6.283185307179584
  0
ELLIPSE
  5
52CD
330
A
100
AcDbEntity
  8
0
  6
Continuous
 62
     7
100
AcDbEllipse
 10
163.3781999999999
 20
-139.8826239999999
 30
0.0
 11
-0.336000000000003
 21
-1.64605710715028
 31
0.0000000000000001
210
0.0
220
0.0000000000000001
230
1.0
 40
0.4082480000000002
 41
0.0
 42
3.141592653589798
  0
ELLIPSE
  5
52CE
330
A
100
AcDbEntity
  8
0
  6
Continuous
 62
     7
100
AcDbEllipse
 10
176.436837
 20
-76.09120299999992
 30
0.0
 11
0.42399999999998
 21
2.077167301880121
 31
0.0
210
0.0
220
0.0
230
1.0
 40
0.4082480000000002
 41
3.972175111854478
 42
5.452602848865494
  0
ELLIPSE
  5
52CF
330
A
100
AcDbEntity
  8
0
  6
Continuous
 62
     7
100
AcDbEllipse
 10
162.126002
 20
-146.1996909999998
 30
0.0
 11
0.4239999999999799
 21
2.077167301880136
 31
0.0
210
0.0
220
0.0
230
1.0
 40
0.4082480000000002
 41
3.972175110809308
 42
5.452602849959868
  0
ELLIPSE
  5
52D0
330
A
100
AcDbEntity
  8
0
  6
Continuous
 62
     7
100
AcDbEllipse
 10
177.689035
 20
-76.34680699999989
 30
0.0
 11
-0.42399999999998
 21
-2.077167301880121
 31
0.0
210
0.0
220
0.0
230
1.0
 40
0.4082480000000002
 41
5.176036590024601
 42
6.283185307179611
  0
ELLIPSE
  5
52D1
330
A
100
AcDbEntity
  8
0
  6
Continuous
 62
     7
100
AcDbEllipse
 10
177.689035
 20
-76.34680699999989
 30
0.0
 11
-0.42399999999998
 21
-2.077167301880121
 31
0.0
210
0.0
220
0.0
230
1.0
 40
0.4082480000000002
 41
0.0000000000000258
 42
3.141592653589818
  0
ELLIPSE
  5
52D2
330
A
100
AcDbEntity
  8
0
  6
Continuous
 62
     7
100
AcDbEllipse
 10
163.3781999999999
 20
-146.4552949999998
 30
0.0
 11
-0.42399999999998
 21
-2.077167301880149
 31
0.0
210
0.0
220
0.0
230
1.0
 40
0.4082480000000002
 41
3.605240263229791
 42
6.283185307179584
  0
ELLIPSE
  5
52D3
330
A
100
AcDbEntity
  8
0
  6
Continuous
 62
     7
100
AcDbEllipse
 10
163.3781999999999
 20
-146.4552949999998
 30
0.0
 11
-0.42399999999998
 21
-2.077167301880149
 31
0.0
210
0.0
220
0.0
230
1.0
 40
0.4082480000000002
 41
6.283185307179584
 42
9.424777960769427
  0
ELLIPSE
  5
52D4
330
A
100
AcDbEntity
  8
0
  6
Continuous
 62
     7
100
AcDbEllipse
 10
177.689035
 20
-82.91947799999986
 30
0.0
 11
-0.336000000000003
 21
-1.646057107150322
 31
0.0
210
0.0
220
0.0
230
1.0
 40
0.4082480000000002
 41
5.176036590024634
 42
6.283185307179584
  0
ELLIPSE
  5
52D5
330
A
100
AcDbEntity
  8
0
  6
Continuous
 62
     7
100
AcDbEllipse
 10
177.689035
 20
-82.91947799999986
 30
0.0
 11
-0.336000000000003
 21
-1.646057107150322
 31
0.0000000000000001
210
0.0
220
0.0000000000000001
230
1.0
 40
0.4082480000000002
 41
0.0
 42
3.141592653589786
  0
ELLIPSE
  5
52D6
330
A
100
AcDbEntity
  8
0
  6
Continuous
 62
     7
100
AcDbEllipse
 10
172.5907999999999
 20
-109.3562199999999
 30
0.0
 11
-0.560000000000005
 21
-2.743428511917139
 31
0.0
210
0.0
220
0.0
230
1.0
 40
0.4082480000000002
 41
2.701390280938673
 42
3.141592653589794
  0
ELLIPSE
  5
52D7
330
A
100
AcDbEntity
  8
0
  6
Continuous
 62
     7
100
AcDbEllipse
 10
172.5907999999999
 20
-109.3562199999999
 30
0.0
 11
-0.560000000000005
 21
-2.743428511917139
 31
0.0000000000000002
210
0.0
220
0.0000000000000001
230
1.0
 40
0.4082480000000002
 41
3.141592653589794
 42
6.283185307179584
  0
ELLIPSE
  5
52D8
330
A
100
AcDbEntity
  8
0
  6
Continuous
 62
     7
100
AcDbEllipse
 10
170.6230599999999
 20
-108.9545569999998
 30
0.0
 11
-3.708087020295236
 21
-0.91403872693252
 31
0.0
210
0.0
220
0.0
230
1.0
 40
0.658331
 41
2.313771031887259
 42
2.600466169698098
  0
ELLIPSE
  5
52D9
330
A
100
AcDbEntity
  8
0
  6
Continuous
 62
     7
100
AcDbEllipse
 10
156.5805529999999
 20
-126.0800149999999
 30
0.0
 11
8.800000000000029
 21
0.0000000027553099
 31
-0.0000000000000006
210
0.0000000000000001
220
0.0
230
1.0
 40
0.4082480000000002
 41
3.14159265358979
 42
4.248741371256055
  0
LINE
  5
52DA
330
A
100
AcDbEntity
  8
0
  6
Continuous
 62
     7
100
AcDbLine
 10
174.1113259999999
 20
-144.9947009999999
 30
0.0
 11
173.57467
 21
-145.0677309999998
 31
0.0
  0
ELLIPSE
  5
52DB
330
A
100
AcDbEntity
  8
0
  6
Continuous
 62
     7
100
AcDbEllipse
 10
177.689035
 20
-128.1978759999999
 30
0.0
 11
-0.336000000000003
 21
-1.646057107150322
 31
0.0
210
0.0
220
0.0
230
1.0
 40
0.4082480000000002
 41
5.176036590024617
 42
6.283185307179584
  0
ELLIPSE
  5
52DC
330
A
100
AcDbEntity
  8
0
  6
Continuous
 62
     7
100
AcDbEllipse
 10
177.689035
 20
-128.1978759999999
 30
0.0
 11
-0.336000000000003
 21
-1.646057107150322
 31
0.0
210
0.0
220
0.0
230
1.0
 40
0.4082480000000002
 41
0.0
 42
3.141592653589788
  0
ELLIPSE
  5
52DD
330
A
100
AcDbEntity
  8
0
  6
Continuous
 62
     7
100
AcDbEllipse
 10
176.436837
 20
-134.5149429999999
 30
0.0
 11
0.4240000000000359
 21
2.077167301880176
 31
0.0
210
0.0
220
0.0
230
0.9999999999999998
 40
0.4082480000000002
 41
3.972175110752528
 42
5.452602850023511
  0
ELLIPSE
  5
52DE
330
A
100
AcDbEntity
  8
0
  6
Continuous
 62
     7
100
AcDbEllipse
 10
177.689035
 20
-134.7705469999999
 30
0.0
 11
-0.42399999999998
 21
-2.077167301880149
 31
0.0
210
0.0
220
0.0
230
1.0
 40
0.4082480000000002
 41
5.176036590024596
 42
6.283185307179611
  0
ELLIPSE
  5
52DF
330
A
100
AcDbEntity
  8
0
  6
Continuous
 62
     7
100
AcDbEllipse
 10
177.689035
 20
-134.7705469999999
 30
0.0
 11
-0.42399999999998
 21
-2.077167301880149
 31
0.0
210
0.0
220
0.0
230
1.0
 40
0.4082480000000002
 41
0.0000000000000268
 42
3.141592653589816
  0
ELLIPSE
  5
52E0
330
A
100
AcDbEntity
  8
0
  6
Continuous
 62
     9
100
AcDbEllipse
 10
159.263835
 20
-76.4198369999999
 30
0.0
 11
3.199999999999976
 21
0.0000000010019208
 31
0.0
210
0.0
220
0.0
230
1.0
 40
0.4082480000000003
 41
4.248741371256055
 42
5.819537698050961
  0
ELLIPSE
  5
52E1
330
A
100
AcDbEntity
  8
0
  6
Continuous
 62
     9
100
AcDbEllipse
 10
158.190522
 20
-77.29619299999987
 30
0.0
 11
-0.1599999999999935
 21
-0.7838367176906114
 31
0.0
210
0.0
220
0.0
230
1.0
 40
0.4082480000000002
 41
3.605240263229622
 42
5.176036590024588
  0
ELLIPSE
  5
52E2
330
A
100
AcDbEntity
  8
0
  6
Continuous
 62
     9
100
AcDbEllipse
 10
159.263835
 20
-75.68953999999988
 30
0.0
 11
-2.400000000000009
 21
-0.0000000007514545
 31
0.0
210
0.0
220
0.0
230
1.0
 40
0.4082480000000002
 41
1.107148717666271
 42
2.677945044461214
  0
ELLIPSE
  5
52E3
330
A
100
AcDbEntity
  8
0
  6
Continuous
 62
     9
100
AcDbEllipse
 10
161.4104599999999
 20
-76.85801499999988
 30
0.0
 11
0.5059644261120047
 21
-0.6196773349971263
 31
0.0
210
0.0
220
0.0
230
1.0
 40
0.816497
 41
0.7853981627583729
 42
2.356194489553104
  0
LINE
  5
52E4
330
A
100
AcDbEntity
  8
0
  6
Continuous
 62
     9
100
AcDbLine
 10
157.832751
 20
-81.60494399999988
 30
0.0
 11
157.832751
 21
-77.58831199999992
 31
0.0
  0
LINE
  5
52E5
330
A
100
AcDbEntity
  8
0
  6
Continuous
 62
     9
100
AcDbLine
 10
162.126002
 20
-77.00407399999992
 30
0.0
 11
162.126002
 21
-78.09951899999987
 31
0.0
  0
LINE
  5
52E6
330
A
100
AcDbEntity
  8
0
  6
Continuous
 62
     9
100
AcDbLine
 10
107.029287
 20
-66.1226529999999
 30
0.0
 11
158.190522
 21
-76.56589599999991
 31
0.0
  0
LINE
  5
52E7
330
A
100
AcDbEntity
  8
0
  6
Continuous
 62
     9
100
AcDbLine
 10
109.175912
 20
-64.36994099999989
 30
0.0
 11
107.029287
 21
-66.1226529999999
 31
0.0
  0
LINE
  5
52E8
330
A
100
AcDbEntity
  8
0
  6
Continuous
 62
     7
100
AcDbLine
 10
109.175912
 20
-64.36994099999989
 30
0.0
 11
162.4837729999999
 21
-75.2513619999999
 31
0.0
  0
LINE
  5
52E9
330
A
100
AcDbEntity
  8
0
  6
Continuous
 62
     9
100
AcDbLine
 10
161.4104599999999
 20
-76.12771799999987
 30
0.0
 11
162.4837729999999
 21
-75.2513619999999
 31
0.0
  0
LINE
  5
52EA
330
A
100
AcDbEntity
  8
0
  6
Continuous
 62
     9
100
AcDbLine
 10
157.832751
 20
-77.58831199999992
 30
0.0
 11
106.671516
 21
-67.14506799999988
 31
0.0
  0
ELLIPSE
  5
52EB
330
A
100
AcDbEntity
  8
0
  6
Continuous
 62
     9
100
AcDbEllipse
 10
107.029287
 20
-66.85294999999988
 30
0.0
 11
-0.1599999999999935
 21
-0.7838367176906114
 31
0.0
210
0.0
220
0.0
230
1.0
 40
0.4082480000000002
 41
3.605240263229692
 42
5.176036590024579
  0
LINE
  5
52EC
330
A
100
AcDbEntity
  8
0
  6
Continuous
 62
     7
100
AcDbLine
 10
143.164145
 20
-91.9021279999999
 30
0.0
 11
157.1172089999999
 21
-94.75028499999986
 31
0.0
  0
LINE
  5
52ED
330
A
100
AcDbEntity
  8
0
  6
Continuous
 62
     7
100
AcDbLine
 10
143.164145
 20
-105.2665579999999
 30
0.0
 11
143.164145
 21
-91.9021279999999
 31
0.0
  0
LINE
  5
52EE
330
A
100
AcDbEntity
  8
0
  6
Continuous
 62
     7
100
AcDbLine
 10
138.513124
 20
-104.3171729999998
 30
0.0
 11
143.164145
 21
-105.2665579999999
 31
0.0
  0
LINE
  5
52EF
330
A
100
AcDbEntity
  8
0
  6
Continuous
 62
     7
100
AcDbLine
 10
138.513124
 20
-114.5413269999999
 30
0.0
 11
138.513124
 21
-104.3171729999998
 31
0.0
  0
LINE
  5
52F0
330
A
100
AcDbEntity
  8
0
  6
Continuous
 62
     7
100
AcDbLine
 10
143.164145
 20
-115.4907129999999
 30
0.0
 11
138.513124
 21
-114.5413269999999
 31
0.0
  0
LINE
  5
52F1
330
A
100
AcDbEntity
  8
0
  6
Continuous
 62
     7
100
AcDbLine
 10
143.164145
 20
-128.8551429999999
 30
0.0
 11
143.164145
 21
-115.4907129999999
 31
0.0
  0
LINE
  5
52F2
330
A
100
AcDbEntity
  8
0
  6
Continuous
 62
     7
100
AcDbLine
 10
157.1172089999999
 20
-131.7032999999999
 30
0.0
 11
143.164145
 21
-128.8551429999999
 31
0.0
  0
LINE
  5
52F3
330
A
100
AcDbEntity
  8
0
  6
Continuous
 62
     9
100
AcDbLine
 10
106.671516
 20
-138.7141489999999
 30
0.0
 11
157.1172089999999
 21
-149.0113329999998
 31
0.0
  0
ELLIPSE
  5
52F4
330
A
100
AcDbEntity
  8
0
  6
Continuous
 62
     9
100
AcDbEllipse
 10
106.671516
 20
-136.1581109999999
 30
0.0
 11
1.770875491392013
 21
-2.168870672490009
 31
0.0000000000000001
210
0.0
220
0.0
230
1.0
 40
0.8164969999999996
 41
3.926990816348108
 42
5.497787143143005
  0
LINE
  5
52F5
330
A
100
AcDbEntity
  8
0
  6
Continuous
 62
     9
100
AcDbLine
 10
104.16712
 20
-69.18989899999989
 30
0.0
 11
104.16712
 21
-135.6469029999999
 31
0.0
  0
ELLIPSE
  5
52F6
330
A
100
AcDbEntity
  8
0
  6
Continuous
 62
     9
100
AcDbEllipse
 10
106.671516
 20
-69.70110699999992
 30
0.0
 11
1.770875491392012
 21
-2.168870672489966
 31
-0.0000000000000001
210
0.0000000000000001
220
0.0000000000000001
230
1.0
 40
0.8164970000000002
 41
2.356194489553252
 42
3.926990816348143
  0
LINE
  5
52F7
330
A
100
AcDbEntity
  8
0
  6
Continuous
 62
     9
100
AcDbLine
 10
163.199314
 20
-76.12771799999987
 30
0.0
 11
162.126002
 21
-77.00407399999992
 31
0.0
  0
ELLIPSE
  5
52F8
330
A
100
AcDbEntity
  8
0
  6
Continuous
 62
     7
100
AcDbEllipse
 10
162.4837729999999
 20
-75.9816589999999
 30
0.0
 11
-0.5059644261120046
 21
0.6196773349971819
 31
0.0
210
-0.0000000000000001
220
0.0
230
0.9999999999999996
 40
0.816497
 41
3.926990816348173
 42
5.497787143143009
  0
LINE
  5
52F9
330
A
100
AcDbEntity
  8
0
  6
Continuous
 62
     7
100
AcDbLine
 10
163.199314
 20
-76.12771799999987
 30
0.0
 11
163.199314
 21
-77.42250599999987
 31
0.0
  0
LINE
  5
52FA
330
A
100
AcDbEntity
  8
0
  6
Continuous
 62
     7
100
AcDbLine
 10
144.881445
 20
-103.8643889999999
 30
0.0
 11
144.881445
 21
-93.1655409999999
 31
0.0
  0
LINE
  5
52FB
330
A
100
AcDbEntity
  8
0
  6
Continuous
 62
     7
100
AcDbLine
 10
143.164145
 20
-105.2665579999999
 30
0.0
 11
144.881445
 21
-103.8643889999999
 31
0.0
  0
LINE
  5
52FC
330
A
100
AcDbEntity
  8
0
  6
Continuous
 62
     7
100
AcDbLine
 10
145.489656
 20
-92.6689389999999
 30
0.0
 11
144.881445
 21
-93.1655409999999
 31
0.0
  0
LINE
  5
52FD
330
A
100
AcDbEntity
  8
0
  6
Continuous
 62
     7
100
AcDbLine
 10
145.489656
 20
-92.37682099999991
 30
0.0
 11
145.489656
 21
-92.6689389999999
 31
0.0
  0
LINE
  5
52FE
330
A
100
AcDbEntity
  8
0
  6
Continuous
 62
     7
100
AcDbLine
 10
138.513124
 20
-114.5413269999999
 30
0.0
 11
140.230424
 21
-113.1391569999999
 31
0.0
  0
LINE
  5
52FF
330
A
100
AcDbEntity
  8
0
  6
Continuous
 62
     7
100
AcDbLine
 10
140.230424
 20
-113.1391569999999
 30
0.0
 11
140.230424
 21
-104.6677149999999
 31
0.0
  0
LINE
  5
5300
330
A
100
AcDbEntity
  8
0
  6
Continuous
 62
     7
100
AcDbLine
 10
143.164145
 20
-128.8551429999999
 30
0.0
 11
145.489656
 21
-126.9563719999999
 31
0.0
  0
LINE
  5
5301
330
A
100
AcDbEntity
  8
0
  6
Continuous
 62
     7
100
AcDbLine
 10
145.757984
 20
-124.8202539999998
 30
0.0
 11
147.6362809999999
 21
-125.2036589999999
 31
0.0
  0
LINE
  5
5302
330
A
100
AcDbEntity
  8
0
  6
Continuous
 62
     7
100
AcDbLine
 10
147.6362809999999
 20
-125.2036589999999
 30
0.0
 11
147.7805529999999
 21
-125.0858619999999
 31
0.0
  0
ELLIPSE
  5
5303
330
A
100
AcDbEntity
  8
0
  6
Continuous
 62
     9
100
AcDbEllipse
 10
107.029287
 20
-69.40898799999989
 30
0.0
 11
-2.276839917503964
 21
2.788548007487094
 31
-0.0000000000000002
210
0.0
220
0.0
230
1.0
 40
0.816497
 41
5.497787143143005
 42
6.2834275597722
  0
ELLIPSE
  5
5304
330
A
100
AcDbEntity
  8
0
  6
Continuous
 62
     9
100
AcDbEllipse
 10
104.524891
 20
-68.89778099999991
 30
0.0
 11
0.8000000000000229
 21
0.0000000002504663
 31
0.0
210
0.0
220
0.0
230
1.0
 40
0.4082480000000003
 41
3.141593693778421
 42
4.248741371256071
  0
ELLIPSE
  5
5305
330
A
100
AcDbEntity
  8
0
  6
Continuous
 62
     7
100
AcDbEllipse
 10
109.175912
 20
-67.65627599999986
 30
0.0
 11
-2.276839917503991
 21
2.788548007487124
 31
-0.0000000000000001
210
0.0000000000000001
220
0.0000000000000001
230
1.0
 40
0.816497
 41
5.49778714314301
 42
6.283185307179584
  0
LINE
  5
5306
330
A
100
AcDbEntity
  8
0
  6
Continuous
 62
     7
100
AcDbLine
 10
143.164145
 20
-115.4907129999999
 30
0.0
 11
144.1203669999999
 21
-114.7099609999999
 31
0.0
  0
LINE
  5
5307
330
A
100
AcDbEntity
  8
0
  6
Continuous
 62
     7
100
AcDbLine
 10
143.8891100000001
 20
-113.8859829999999
 30
0.0
 11
140.230424
 21
-113.1391569999999
 31
0.0
  0
LINE
  5
5308
330
A
100
AcDbEntity
  8
0
  6
Continuous
 62
     7
100
AcDbLine
 10
145.489656
 20
-124.2907879999999
 30
0.0
 11
144.881445
 21
-124.7873899999999
 31
0.0
  0
LINE
  5
5309
330
A
100
AcDbEntity
  8
0
  6
Continuous
 62
     7
100
AcDbLine
 10
144.881445
 20
-124.7873899999999
 30
0.0
 11
144.881445
 21
-115.7602309999999
 31
0.0
  0
LINE
  5
530A
330
A
100
AcDbEntity
  8
0
  6
Continuous
 62
     7
100
AcDbLine
 10
145.489656
 20
-124.2907879999999
 30
0.0
 11
145.489656
 21
-126.9563719999999
 31
0.0
  0
ELLIPSE
  5
530B
330
A
100
AcDbEntity
  8
0
  6
Continuous
 62
     9
100
AcDbEllipse
 10
104.524891
 20
-135.3547839999999
 30
0.0
 11
-0.7999999999999674
 21
-0.0000000002504802
 31
0.0
210
0.0
220
0.0
230
0.9999999999999998
 40
0.4082480000000002
 41
0.0
 42
1.107148717666224
  0
ELLIPSE
  5
530C
330
A
100
AcDbEntity
  8
0
  6
Continuous
 62
     9
100
AcDbEllipse
 10
107.029287
 20
-138.4220299999999
 30
0.0
 11
-0.1599999999999935
 21
-0.7838367176906114
 31
0.0
210
0.0
220
0.0
230
1.0
 40
0.4082480000000002
 41
5.176036590024563
 42
6.283185307179584
  0
LINE
  5
530D
330
A
100
AcDbEntity
  8
0
  6
Continuous
 62
     7
100
AcDbLine
 10
144.881445
 20
-124.1666379999998
 30
0.0
 11
145.489656
 21
-124.2907879999999
 31
0.0
  0
LINE
  5
530E
330
A
100
AcDbEntity
  8
0
  6
Continuous
 62
     7
100
AcDbLine
 10
147.6362809999999
 20
-122.5380759999999
 30
0.0
 11
147.7805529999999
 21
-122.4202789999999
 31
0.0
  0
LINE
  5
530F
330
A
100
AcDbEntity
  8
0
  6
Continuous
 62
     7
100
AcDbLine
 10
147.6362809999999
 20
-125.2036589999999
 30
0.0
 11
147.6362809999999
 21
-122.5380759999999
 31
0.0
  0
LINE
  5
5310
330
A
100
AcDbEntity
  8
0
  6
Continuous
 62
     7
100
AcDbLine
 10
145.8653149999999
 20
-122.1765789999998
 30
0.0
 11
147.6362809999999
 21
-122.5380759999999
 31
0.0
  0
LINE
  5
5311
330
A
100
AcDbEntity
  8
0
  6
Continuous
 62
     7
100
AcDbLine
 10
147.546839
 20
-120.6940769999999
 30
0.0
 11
147.7805529999999
 21
-120.7417839999999
 31
0.0
  0
ELLIPSE
  5
5312
330
A
100
AcDbEntity
  8
0
  6
Continuous
 62
     7
100
AcDbEllipse
 10
153.285645
 20
-107.5958139999999
 30
0.0
 11
-5.200000000000036
 21
-0.0000000016281282
 31
-0.0000000000000004
210
-0.0000000000000001
220
0.0000000000000001
230
1.0
 40
0.4082480000000002
 41
1.196691484440189
 42
2.399179552221168
  0
ELLIPSE
  5
5313
330
A
100
AcDbEntity
  8
0
  6
Continuous
 62
     7
100
AcDbEllipse
 10
151.9700629999999
 20
-108.9638559999999
 30
0.0
 11
-1.600000000000043
 21
-0.0000000005009604
 31
0.0
210
0.0
220
0.0
230
1.0
 40
0.4082480000000002
 41
0.7918811474438176
 42
1.196691484440189
  0
ELLIPSE
  5
5314
330
A
100
AcDbEntity
  8
0
  6
Continuous
 62
     7
100
AcDbEllipse
 10
147.6145149999999
 20
-110.7652079999999
 30
0.0
 11
4.599999999999936
 21
0.0000000014402785
 31
0.0000000000000003
210
-0.0000000000000001
220
0.0
230
1.0
 40
0.4082480000000002
 41
0.7918811474438412
 42
1.381563468782472
  0
ELLIPSE
  5
5315
330
A
100
AcDbEntity
  8
0
  6
Continuous
 62
     7
100
AcDbEllipse
 10
148.7807689999999
 20
-108.2792519999999
 30
0.0
 11
-1.600000000000043
 21
-0.0000000005009743
 31
0.0
210
0.0
220
0.0
230
1.0
 40
0.4082480000000002
 41
0.7600247124324238
 42
1.381563468782399
  0
ELLIPSE
  5
5316
330
A
100
AcDbEntity
  8
0
  6
Continuous
 62
     7
100
AcDbEllipse
 10
157.478597
 20
-104.9041519999999
 30
0.0
 11
-13.6
 21
-0.0000000042582049
 31
0.0
210
0.0
220
0.0
230
1.0
 40
0.4082480000000002
 41
6.241655278368365
 42
6.283185307179588
  0
ELLIPSE
  5
5317
330
A
100
AcDbEntity
  8
0
  6
Continuous
 62
     7
100
AcDbEllipse
 10
145.660072
 20
-104.0712589999999
 30
0.0
 11
-1.599999999999988
 21
-0.0000000005009604
 31
0.0
210
0.0
220
0.0
230
1.0
 40
0.4082480000000003
 41
4.967805894879275
 42
5.22063023257862
  0
ELLIPSE
  5
5318
330
A
100
AcDbEntity
  8
0
  6
Continuous
 62
     7
100
AcDbEllipse
 10
153.285645
 20
-116.3593739999999
 30
0.0
 11
-5.200000000000036
 21
-0.0000000016281421
 31
0.0
210
0.0
220
0.0
230
1.0
 40
0.4082480000000002
 41
1.196691484440199
 42
2.399179552221153
  0
LINE
  5
5319
330
A
100
AcDbEntity
  8
0
  6
Continuous
 62
     9
100
AcDbLine
 10
151.38536
 20
-109.5718749999999
 30
0.0
 11
151.38536
 21
-118.3354359999999
 31
0.0
  0
LINE
  5
531A
330
A
100
AcDbEntity
  8
0
  6
Continuous
 62
     9
100
AcDbLine
 10
150.8460509999999
 20
-118.1922819999999
 30
0.0
 11
150.8460509999999
 21
-109.4287209999999
 31
0.0
  0
ELLIPSE
  5
531B
330
A
100
AcDbEntity
  8
0
  6
Continuous
 62
     7
100
AcDbEllipse
 10
151.9700629999999
 20
-117.7274169999999
 30
0.0
 11
1.599999999999988
 21
0.0000000005009604
 31
0.0
210
0.0
220
0.0000000000000001
230
1.0
 40
0.4082480000000003
 41
3.933473801033693
 42
4.33828413803002
  0
LINE
  5
531C
330
A
100
AcDbEntity
  8
0
  6
Continuous
 62
     9
100
AcDbLine
 10
148.4797999999999
 20
-108.9207889999999
 30
0.0
 11
148.4797999999999
 21
-117.6843499999999
 31
0.0
  0
ELLIPSE
  5
531D
330
A
100
AcDbEntity
  8
0
  6
Continuous
 62
     7
100
AcDbEllipse
 10
147.6145149999999
 20
-119.5287679999999
 30
0.0
 11
4.599999999999992
 21
0.0000000014402646
 31
0.0
210
0.0
220
0.0
230
1.0
 40
0.4082480000000002
 41
0.7918811474438116
 42
1.381563468782438
  0
LINE
  5
531E
330
A
100
AcDbEntity
  8
0
  6
Continuous
 62
     9
100
AcDbLine
 10
147.6210589999999
 20
-117.4928259999999
 30
0.0
 11
147.6210589999999
 21
-108.7292649999999
 31
0.0
  0
ELLIPSE
  5
531F
330
A
100
AcDbEntity
  8
0
  6
Continuous
 62
     7
100
AcDbEllipse
 10
148.7807689999999
 20
-117.0428129999999
 30
0.0
 11
1.599999999999988
 21
0.0000000005009604
 31
-0.0000000000000001
210
0.0000000000000001
220
0.0
230
1.0
 40
0.4082480000000003
 41
3.901617366022245
 42
4.523156122372237
  0
ELLIPSE
  5
5320
330
A
100
AcDbEntity
  8
0
  6
Continuous
 62
     7
100
AcDbEllipse
 10
157.478597
 20
-104.9041519999999
 30
0.0
 11
-13.6
 21
-0.000000004258191
 31
-0.0000000000000009
210
-0.0000000000000001
220
0.0000000000000001
230
1.0
 40
0.4082480000000002
 41
0.000000000000001
 42
0.7600247124324593
  0
ELLIPSE
  5
5321
330
A
100
AcDbEntity
  8
0
  6
Continuous
 62
     7
100
AcDbEllipse
 10
157.478597
 20
-113.6677129999999
 30
0.0
 11
-13.60000000000005
 21
-0.000000004258191
 31
-0.0000000000000009
210
-0.0000000000000001
220
0.0000000000000001
230
1.0
 40
0.4082480000000002
 41
0.000000000000001
 42
0.7600247124324599
  0
ELLIPSE
  5
5322
330
A
100
AcDbEntity
  8
0
  6
Continuous
 62
     7
100
AcDbEllipse
 10
144.093649
 20
-101.6222349999999
 30
0.0
 11
4.599999999999992
 21
0.0000000014402646
 31
0.0
210
0.0
220
0.0
230
1.0
 40
0.4082480000000002
 41
4.96780589487925
 42
5.642189781730142
  0
LINE
  5
532D
330
A
100
AcDbEntity
  8
0
  6
Continuous
 62
     7
100
AcDbLine
 10
168.438608
 20
-75.4414729999999
 30
0.0
 11
168.438608
 21
-71.4319099999999
 31
0.0
  0
LINE
  5
532E
330
A
100
AcDbEntity
  8
0
  6
Continuous
 62
     7
100
AcDbLine
 10
166.4719209999999
 20
-69.77171699999989
 30
0.0
 11
115.3106859999999
 21
-59.32847399999989
 31
0.0
  0
LINE
  5
532F
330
A
100
AcDbEntity
  8
0
  6
Continuous
 62
     7
100
AcDbLine
 10
112.8738459999999
 20
-59.879801
 30
0.0
 11
110.72722
 21
-61.63251299999989
 31
0.0
  0
ARC
  5
5330
330
A
100
AcDbEntity
  8
0
  6
Continuous
 62
     7
100
AcDbCircle
 10
114.6684879999999
 20
-62.16211299999987
 30
0.0
 40
2.905499999999998
100
AcDbArc
 50
77.23057100000068
 51
125.6451510000003
  0
LINE
  5
5331
330
A
100
AcDbEntity
  8
0
  6
Continuous
 62
     7
100
AcDbLine
 10
112.9752689999999
 20
-59.8009829999999
 30
0.0
 11
112.8944899999999
 21
-59.86311599999989
 31
0.0
  0
LINE
  5
5332
330
A
100
AcDbEntity
  8
0
  6
Continuous
 62
     7
100
AcDbLine
 10
112.8944899999999
 20
-59.86311599999989
 30
0.0
 11
112.873249
 21
-59.88028899999989
 31
0.0
  0
LINE
  5
5333
330
A
100
AcDbEntity
  8
0
  6
Continuous
 62
     7
100
AcDbLine
 10
112.401116
 20
-63.20791499999988
 30
0.0
 11
112.043345
 21
-63.50003399999989
 31
0.0
  0
LINE
  5
5334
330
A
100
AcDbEntity
  8
0
  6
Continuous
 62
     7
100
AcDbLine
 10
112.043345
 20
-63.50003399999989
 30
0.0
 11
111.685574
 21
-63.79215299999991
 31
0.0
  0
LINE
  5
5335
330
A
100
AcDbEntity
  8
0
  6
Continuous
 62
     7
100
AcDbLine
 10
112.401116
 20
-63.20791499999988
 30
0.0
 11
112.043345
 21
-63.50003399999989
 31
0.0
  0
LINE
  5
5336
330
A
100
AcDbEntity
  8
0
  6
Continuous
 62
     7
100
AcDbLine
 10
177.2737279999999
 20
-84.5365939999999
 30
0.0
 11
177.689035
 21
-84.19749699999989
 31
0.0
  0
LINE
  5
5337
330
A
100
AcDbEntity
  8
0
  6
Continuous
 62
     7
100
AcDbLine
 10
178.189914
 20
-81.74369999999989
 30
0.0
 11
177.9407299999999
 21
-81.26896499999988
 31
0.0
  0
LINE
  5
5338
330
A
100
AcDbEntity
  8
0
  6
Continuous
 62
     7
100
AcDbLine
 10
162.9628929999999
 20
-141.4997399999998
 30
0.0
 11
163.3781999999999
 21
-141.1606429999999
 31
0.0
  0
LINE
  5
5339
330
A
100
AcDbEntity
  8
0
  6
Continuous
 62
     7
100
AcDbLine
 10
163.8790789999999
 20
-138.7068459999998
 30
0.0
 11
163.629895
 21
-138.2321109999998
 31
0.0
  0
LINE
  5
533A
330
A
100
AcDbEntity
  8
0
  6
Continuous
 62
     7
100
AcDbLine
 10
146.1186900000001
 20
-95.70328499999986
 30
0.0
 11
146.0303919999999
 21
-95.27637499999986
 31
0.0
  0
LINE
  5
533B
330
A
100
AcDbEntity
  8
0
  6
Continuous
 62
     7
100
AcDbLine
 10
146.1186900000001
 20
-102.6411419999999
 30
0.0
 11
146.1186900000001
 21
-95.70332199999986
 31
0.0
  0
LINE
  5
5345
330
A
100
AcDbEntity
  8
0
  6
Continuous
 62
     7
100
AcDbLine
 10
147.7805529999999
 20
-92.8444479999999
 30
0.0
 11
147.7805529999999
 21
-104.0980839999999
 31
0.0
  0
LINE
  5
5346
330
A
100
AcDbEntity
  8
0
  6
Continuous
 62
     7
100
AcDbLine
 10
147.7805529999999
 20
-117.5526439999999
 30
0.0
 11
147.7805529999999
 21
-126.0800149999999
 31
0.0
  0
ARC
  5
5347
330
A
100
AcDbEntity
  8
0
  6
Continuous
 62
     7
100
AcDbCircle
 10
106.620313
 20
-68.83371399999987
 30
0.0
 40
2.896132
100
AcDbArc
 50
130.1775550000002
 51
181.2675719999992
  0
LINE
  5
5348
330
A
100
AcDbEntity
  8
0
  6
Continuous
 62
     7
100
AcDbLine
 10
106.899072
 20
-64.8677279999999
 30
0.0
 11
104.752447
 21
-66.6204399999999
 31
0.0
  0
LINE
  5
5349
330
A
100
AcDbEntity
  8
0
  6
Continuous
 62
     7
100
AcDbLine
 10
103.724891
 20
-68.89778099999991
 30
0.0
 11
103.724891
 21
-135.3547839999999
 31
0.0
  0
LINE
  5
534A
330
A
100
AcDbEntity
  8
0
  6
Continuous
 62
     7
100
AcDbLine
 10
106.869287
 20
-139.2058669999999
 30
0.0
 11
157.1172089999999
 21
-149.4626809999998
 31
0.0
  0
ARC
  5
534B
330
A
100
AcDbEntity
  8
0
  6
Continuous
 62
     7
100
AcDbCircle
 10
107.7838
 20
-135.2499339999999
 30
0.0
 40
4.060264
100
AcDbArc
 50
181.4797370000006
 51
256.9833040000006
  0
LINE
  5
534C
330
A
100
AcDbEntity
  8
0
  6
Continuous
 62
     7
100
AcDbLine
 10
143.8785969999999
 20
-104.9041519999999
 30
0.0
 11
143.8785969999999
 21
-113.6677129999999
 31
0.0
  0
LINE
  5
534D
330
A
100
AcDbEntity
  8
0
  6
Continuous
 62
     7
100
AcDbLine
 10
-12.64999999999997
 20
-62.49999999999989
 30
0.0
 11
58.85000000000003
 21
-62.49999999999989
 31
0.0
  0
LINE
  5
534E
330
A
100
AcDbEntity
  8
0
  6
Continuous
 62
     9
100
AcDbLine
 10
58.85000000000003
 20
-63.49999999999989
 30
0.0
 11
58.85000000000003
 21
-62.49999999999989
 31
0.0
  0
LINE
  5
534F
330
A
100
AcDbEntity
  8
0
  6
Continuous
 62
     9
100
AcDbLine
 10
58.85000000000003
 20
-63.49999999999989
 30
0.0
 11
-12.64999999999997
 21
-63.49999999999989
 31
0.0
  0
LINE
  5
5350
330
A
100
AcDbEntity
  8
0
  6
Continuous
 62
     9
100
AcDbLine
 10
-12.64999999999997
 20
-62.49999999999989
 30
0.0
 11
-12.64999999999997
 21
-63.49999999999989
 31
0.0
  0
ARC
  5
5351
330
A
100
AcDbEntity
  8
0
  6
Continuous
 62
     9
100
AcDbCircle
 10
58.85000000000003
 20
-66.4999999999999
 30
0.0
 40
3.0
100
AcDbArc
 50
0.0
 51
90.0
  0
ARC
  5
5352
330
A
100
AcDbEntity
  8
0
  6
Continuous
 62
     7
100
AcDbCircle
 10
58.85000000000003
 20
-66.4999999999999
 30
0.0
 40
4.0
100
AcDbArc
 50
0.0
 51
90.0
  0
LINE
  5
5353
330
A
100
AcDbEntity
  8
0
  6
Continuous
 62
     9
100
AcDbLine
 10
61.85000000000003
 20
-66.4999999999999
 30
0.0
 11
62.85000000000003
 21
-66.4999999999999
 31
0.0
  0
LINE
  5
5354
330
A
100
AcDbEntity
  8
0
  6
Continuous
 62
     7
100
AcDbLine
 10
-16.14999999999997
 20
-62.49999999999989
 30
0.0
 11
-12.64999999999997
 21
-62.49999999999989
 31
0.0
  0
LINE
  5
5355
330
A
100
AcDbEntity
  8
0
  6
Continuous
 62
     9
100
AcDbLine
 10
-12.64999999999997
 20
-63.49999999999989
 30
0.0
 11
-17.14999999999997
 21
-63.49999999999989
 31
0.0
  0
ARC
  5
5356
330
A
100
AcDbEntity
  8
0
  6
Continuous
 62
     7
100
AcDbCircle
 10
-16.14999999999997
 20
-63.49999999999989
 30
0.0
 40
1.0
100
AcDbArc
 50
90.0
 51
180.0
  0
LINE
  5
5357
330
A
100
AcDbEntity
  8
0
  6
Continuous
 62
     9
100
AcDbLine
 10
61.85000000000003
 20
-69.4999999999999
 30
0.0
 11
61.85000000000003
 21
-66.4999999999999
 31
0.0
  0
LINE
  5
5358
330
A
100
AcDbEntity
  8
0
  6
Continuous
 62
     7
100
AcDbLine
 10
-12.64999999999997
 20
-69.4999999999999
 30
0.0
 11
61.85000000000003
 21
-69.4999999999999
 31
0.0
  0
LINE
  5
5359
330
A
100
AcDbEntity
  8
0
  6
Continuous
 62
     9
100
AcDbLine
 10
-12.64999999999997
 20
-63.49999999999989
 30
0.0
 11
-12.64999999999997
 21
-69.4999999999999
 31
0.0
  0
LINE
  5
535A
330
A
100
AcDbEntity
  8
0
  6
Continuous
 62
     7
100
AcDbLine
 10
-12.64999999999997
 20
-69.4999999999999
 30
0.0
 11
-17.14999999999997
 21
-69.4999999999999
 31
0.0
  0
LINE
  5
535B
330
A
100
AcDbEntity
  8
0
  6
Continuous
 62
     7
100
AcDbLine
 10
-17.14999999999997
 20
-69.4999999999999
 30
0.0
 11
-17.14999999999997
 21
-63.49999999999989
 31
0.0
  0
LINE
  5
535C
330
A
100
AcDbEntity
  8
0
  6
Continuous
 62
     7
100
AcDbLine
 10
62.85000000000003
 20
-66.4999999999999
 30
0.0
 11
62.85000000000003
 21
-69.4999999999999
 31
0.0
  0
LINE
  5
535D
330
A
100
AcDbEntity
  8
0
  6
Continuous
 62
     7
100
AcDbLine
 10
62.85000000000003
 20
-69.4999999999999
 30
0.0
 11
61.85000000000003
 21
-69.4999999999999
 31
0.0
  0
LINE
  5
535E
330
A
100
AcDbEntity
  8
0
  6
Continuous
 62
     9
100
AcDbLine
 10
-9.499999999999984
 20
-70.9999999999999
 30
0.0
 11
-9.499999999999984
 21
-69.9999999999999
 31
0.0
  0
LINE
  5
535F
330
A
100
AcDbEntity
  8
0
  6
Continuous
 62
     9
100
AcDbLine
 10
-9.499999999999984
 20
-69.9999999999999
 30
0.0
 11
-9.499999999999984
 21
-69.4999999999999
 31
0.0
  0
LINE
  5
5360
330
A
100
AcDbEntity
  8
0
  6
Continuous
 62
     7
100
AcDbLine
 10
-15.49999999999997
 20
-70.9999999999999
 30
0.0
 11
-9.499999999999984
 21
-70.9999999999999
 31
0.0
  0
LINE
  5
5361
330
A
100
AcDbEntity
  8
0
  6
Continuous
 62
     7
100
AcDbLine
 10
-15.49999999999997
 20
-70.9999999999999
 30
0.0
 11
-15.49999999999997
 21
-69.9999999999999
 31
0.0
  0
LINE
  5
5362
330
A
100
AcDbEntity
  8
0
  6
Continuous
 62
     7
100
AcDbLine
 10
-15.49999999999997
 20
-69.9999999999999
 30
0.0
 11
-15.49999999999997
 21
-69.4999999999999
 31
0.0
  0
LINE
  5
5363
330
A
100
AcDbEntity
  8
0
  6
Continuous
 62
     9
100
AcDbLine
 10
55.0
 20
-70.9999999999999
 30
0.0
 11
55.0
 21
-69.9999999999999
 31
0.0
  0
LINE
  5
5364
330
A
100
AcDbEntity
  8
0
  6
Continuous
 62
     9
100
AcDbLine
 10
55.0
 20
-69.9999999999999
 30
0.0
 11
55.0
 21
-69.4999999999999
 31
0.0
  0
LINE
  5
5365
330
A
100
AcDbEntity
  8
0
  6
Continuous
 62
     7
100
AcDbLine
 10
-9.499999999999984
 20
-70.9999999999999
 30
0.0
 11
55.0
 21
-70.9999999999999
 31
0.0
  0
LINE
  5
5366
330
A
100
AcDbEntity
  8
0
  6
Continuous
 62
     7
100
AcDbLine
 10
60.5
 20
-70.9999999999999
 30
0.0
 11
60.5
 21
-69.9999999999999
 31
0.0
  0
LINE
  5
5367
330
A
100
AcDbEntity
  8
0
  6
Continuous
 62
     7
100
AcDbLine
 10
60.5
 20
-69.9999999999999
 30
0.0
 11
60.5
 21
-69.4999999999999
 31
0.0
  0
LINE
  5
5368
330
A
100
AcDbEntity
  8
0
  6
Continuous
 62
     7
100
AcDbLine
 10
55.0
 20
-70.9999999999999
 30
0.0
 11
60.5
 21
-70.9999999999999
 31
0.0
  0
LINE
  5
5369
330
A
100
AcDbEntity
  8
0
  6
Continuous
 62
     9
100
AcDbLine
 10
-9.499999999999984
 20
-80.49999999999988
 30
0.0
 11
-9.499999999999984
 21
-79.9999999999999
 31
0.0
  0
LINE
  5
536A
330
A
100
AcDbEntity
  8
0
  6
Continuous
 62
     9
100
AcDbLine
 10
-9.499999999999984
 20
-79.9999999999999
 30
0.0
 11
-9.499999999999984
 21
-78.9999999999999
 31
0.0
  0
LINE
  5
536B
330
A
100
AcDbEntity
  8
0
  6
Continuous
 62
     7
100
AcDbLine
 10
-15.49999999999997
 20
-80.49999999999988
 30
0.0
 11
-15.49999999999997
 21
-79.9999999999999
 31
0.0
  0
LINE
  5
536C
330
A
100
AcDbEntity
  8
0
  6
Continuous
 62
     7
100
AcDbLine
 10
-15.49999999999997
 20
-79.9999999999999
 30
0.0
 11
-15.49999999999997
 21
-78.9999999999999
 31
0.0
  0
LINE
  5
536D
330
A
100
AcDbEntity
  8
0
  6
Continuous
 62
     7
100
AcDbLine
 10
-15.49999999999997
 20
-78.9999999999999
 30
0.0
 11
-9.499999999999984
 21
-78.9999999999999
 31
0.0
  0
LINE
  5
536E
330
A
100
AcDbEntity
  8
0
  6
Continuous
 62
     9
100
AcDbLine
 10
55.0
 20
-80.49999999999988
 30
0.0
 11
55.0
 21
-79.9999999999999
 31
0.0
  0
LINE
  5
536F
330
A
100
AcDbEntity
  8
0
  6
Continuous
 62
     9
100
AcDbLine
 10
55.0
 20
-79.9999999999999
 30
0.0
 11
55.0
 21
-78.9999999999999
 31
0.0
  0
LINE
  5
5370
330
A
100
AcDbEntity
  8
0
  6
Continuous
 62
     7
100
AcDbLine
 10
-9.499999999999984
 20
-78.9999999999999
 30
0.0
 11
55.0
 21
-78.9999999999999
 31
0.0
  0
LINE
  5
5371
330
A
100
AcDbEntity
  8
0
  6
Continuous
 62
     7
100
AcDbLine
 10
60.5
 20
-80.49999999999988
 30
0.0
 11
60.5
 21
-79.9999999999999
 31
0.0
  0
LINE
  5
5372
330
A
100
AcDbEntity
  8
0
  6
Continuous
 62
     7
100
AcDbLine
 10
60.5
 20
-79.9999999999999
 30
0.0
 11
60.5
 21
-78.9999999999999
 31
0.0
  0
LINE
  5
5373
330
A
100
AcDbEntity
  8
0
  6
Continuous
 62
     7
100
AcDbLine
 10
55.0
 20
-78.9999999999999
 30
0.0
 11
60.5
 21
-78.9999999999999
 31
0.0
  0
LINE
  5
5374
330
A
100
AcDbEntity
  8
0
  6
Continuous
 62
     9
100
AcDbLine
 10
-9.499999999999984
 20
-69.9999999999999
 30
0.0
 11
-9.499999999999984
 21
-69.4999999999999
 31
0.0
  0
LINE
  5
5375
330
A
100
AcDbEntity
  8
0
  6
Continuous
 62
     7
100
AcDbLine
 10
-15.49999999999997
 20
-69.9999999999999
 30
0.0
 11
-9.499999999999984
 21
-69.9999999999999
 31
0.0
  0
LINE
  5
5376
330
A
100
AcDbEntity
  8
0
  6
Continuous
 62
     7
100
AcDbLine
 10
-15.49999999999997
 20
-69.9999999999999
 30
0.0
 11
-15.49999999999997
 21
-69.4999999999999
 31
0.0
  0
LINE
  5
5377
330
A
100
AcDbEntity
  8
0
  6
Continuous
 62
     9
100
AcDbLine
 10
55.0
 20
-69.9999999999999
 30
0.0
 11
55.0
 21
-69.4999999999999
 31
0.0
  0
LINE
  5
5378
330
A
100
AcDbEntity
  8
0
  6
Continuous
 62
     7
100
AcDbLine
 10
-9.499999999999984
 20
-69.9999999999999
 30
0.0
 11
55.0
 21
-69.9999999999999
 31
0.0
  0
LINE
  5
5379
330
A
100
AcDbEntity
  8
0
  6
Continuous
 62
     7
100
AcDbLine
 10
60.5
 20
-69.9999999999999
 30
0.0
 11
60.5
 21
-69.4999999999999
 31
0.0
  0
LINE
  5
537A
330
A
100
AcDbEntity
  8
0
  6
Continuous
 62
     7
100
AcDbLine
 10
55.0
 20
-69.9999999999999
 30
0.0
 11
60.5
 21
-69.9999999999999
 31
0.0
  0
LINE
  5
537B
330
A
100
AcDbEntity
  8
0
  6
Continuous
 62
     9
100
AcDbLine
 10
-9.499999999999984
 20
-80.49999999999988
 30
0.0
 11
-9.499999999999984
 21
-79.9999999999999
 31
0.0
  0
LINE
  5
537C
330
A
100
AcDbEntity
  8
0
  6
Continuous
 62
     7
100
AcDbLine
 10
-15.49999999999997
 20
-80.49999999999988
 30
0.0
 11
-15.49999999999997
 21
-79.9999999999999
 31
0.0
  0
LINE
  5
537D
330
A
100
AcDbEntity
  8
0
  6
Continuous
 62
     7
100
AcDbLine
 10
-15.49999999999997
 20
-79.9999999999999
 30
0.0
 11
-9.499999999999984
 21
-79.9999999999999
 31
0.0
  0
LINE
  5
537E
330
A
100
AcDbEntity
  8
0
  6
Continuous
 62
     9
100
AcDbLine
 10
55.0
 20
-80.49999999999988
 30
0.0
 11
55.0
 21
-79.9999999999999
 31
0.0
  0
LINE
  5
537F
330
A
100
AcDbEntity
  8
0
  6
Continuous
 62
     7
100
AcDbLine
 10
-9.499999999999984
 20
-79.9999999999999
 30
0.0
 11
55.0
 21
-79.9999999999999
 31
0.0
  0
LINE
  5
5380
330
A
100
AcDbEntity
  8
0
  6
Continuous
 62
     7
100
AcDbLine
 10
60.5
 20
-80.49999999999988
 30
0.0
 11
60.5
 21
-79.9999999999999
 31
0.0
  0
LINE
  5
5381
330
A
100
AcDbEntity
  8
0
  6
Continuous
 62
     7
100
AcDbLine
 10
55.0
 20
-79.9999999999999
 30
0.0
 11
60.5
 21
-79.9999999999999
 31
0.0
  0
LINE
  5
5382
330
A
100
AcDbEntity
  8
0
  6
Continuous
 62
     7
100
AcDbLine
 10
17.87017100000001
 20
-62.39999999999991
 30
0.0
 11
22.85000000000004
 21
-62.39999999999991
 31
0.0
  0
LINE
  5
5383
330
A
100
AcDbEntity
  8
0
  6
Continuous
 62
     7
100
AcDbLine
 10
22.85000000000004
 20
-62.39999999999991
 30
0.0
 11
27.82982900000003
 21
-62.39999999999991
 31
0.0
  0
ARC
  5
5384
330
A
100
AcDbEntity
  8
0
  6
Continuous
 62
     7
100
AcDbCircle
 10
64.00000000000002
 20
-62.49999999999989
 30
0.0
 40
1.5
100
AcDbArc
 50
329.5081939999997
 51
0.0
  0
LINE
  5
5385
330
A
100
AcDbEntity
  8
0
  6
Continuous
 62
     7
100
AcDbLine
 10
65.50000000000001
 20
-47.49999999999989
 30
0.0
 11
70.50000000000001
 21
-47.49999999999989
 31
0.0
  0
LINE
  5
5386
330
A
100
AcDbEntity
  8
0
  6
Continuous
 62
     7
100
AcDbLine
 10
70.50000000000001
 20
-47.49999999999989
 30
0.0
 11
70.50000000000001
 21
-64.9999999999999
 31
0.0
  0
LINE
  5
5387
330
A
100
AcDbEntity
  8
0
  6
Continuous
 62
     7
100
AcDbLine
 10
70.50000000000001
 20
-64.9999999999999
 30
0.0
 11
70.00000000000001
 21
-65.4999999999999
 31
0.0
  0
LINE
  5
5388
330
A
100
AcDbEntity
  8
0
  6
Continuous
 62
     7
100
AcDbLine
 10
70.00000000000001
 20
-65.4999999999999
 30
0.0
 11
70.00000000000001
 21
-84.4999999999999
 31
0.0
  0
LINE
  5
5389
330
A
100
AcDbEntity
  8
0
  6
Continuous
 62
     7
100
AcDbLine
 10
70.00000000000001
 20
-84.4999999999999
 30
0.0
 11
70.50000000000001
 21
-84.99999999999991
 31
0.0
  0
LINE
  5
538A
330
A
100
AcDbEntity
  8
0
  6
Continuous
 62
     7
100
AcDbLine
 10
70.50000000000001
 20
-84.99999999999991
 30
0.0
 11
70.50000000000001
 21
-102.4999999999999
 31
0.0
  0
LINE
  5
538B
330
A
100
AcDbEntity
  8
0
  6
Continuous
 62
     7
100
AcDbLine
 10
70.50000000000001
 20
-102.4999999999999
 30
0.0
 11
65.50000000000001
 21
-102.4999999999999
 31
0.0
  0
LINE
  5
538C
330
A
100
AcDbEntity
  8
0
  6
Continuous
 62
     7
100
AcDbLine
 10
65.50000000000001
 20
-102.4999999999999
 30
0.0
 11
65.50000000000001
 21
-87.49999999999991
 31
0.0
  0
ARC
  5
538D
330
A
100
AcDbEntity
  8
0
  6
Continuous
 62
     7
100
AcDbCircle
 10
64.00000000000002
 20
-87.49999999999991
 30
0.0
 40
1.5
100
AcDbArc
 50
0.0
 51
30.49180600000035
  0
ARC
  5
538E
330
A
100
AcDbEntity
  8
0
  6
Continuous
 62
     7
100
AcDbCircle
 10
49.10000000000003
 20
-74.99999999999992
 30
0.0
 40
20.0
100
AcDbArc
 50
324.0595660000009
 51
35.94043399999917
  0
LINE
  5
538F
330
A
100
AcDbEntity
  8
0
  6
Continuous
 62
     7
100
AcDbLine
 10
65.50000000000001
 20
-62.49999999999989
 30
0.0
 11
65.50000000000001
 21
-47.49999999999989
 31
0.0
  0
ARC
  5
5390
330
A
100
AcDbEntity
  8
0
  6
Continuous
 62
     9
100
AcDbCircle
 10
49.10000000000003
 20
-74.99999999999992
 30
0.0
 40
19.0
100
AcDbArc
 50
324.2727539999998
 51
35.72724600000022
  0
ARC
  5
5391
330
A
100
AcDbEntity
  8
0
  6
Continuous
 62
     7
100
AcDbCircle
 10
64.00000000000002
 20
-87.49999999999991
 30
0.0
 40
1.5
100
AcDbArc
 50
30.49180600000035
 51
69.54069699999973
  0
ARC
  5
5392
330
A
100
AcDbEntity
  8
0
  6
Continuous
 62
     7
100
AcDbCircle
 10
64.00000000000002
 20
-62.49999999999989
 30
0.0
 40
1.5
100
AcDbArc
 50
290.4593030000001
 51
329.5081939999997
  0
LINE
  5
5393
330
A
100
AcDbEntity
  8
0
  6
Continuous
 62
     7
100
AcDbLine
 10
64.00000000000002
 20
-85.9999999999999
 30
0.0
 11
62.12249900000002
 21
-85.9999999999999
 31
0.0
  0
LINE
  5
5394
330
A
100
AcDbEntity
  8
0
  6
Continuous
 62
     7
100
AcDbLine
 10
61.972499
 20
-63.99999999999991
 30
0.0
 11
64.00000000000002
 21
-63.99999999999991
 31
0.0
  0
ARC
  5
5395
330
A
100
AcDbEntity
  8
0
  6
Continuous
 62
     7
100
AcDbCircle
 10
64.00000000000002
 20
-87.49999999999991
 30
0.0
 40
1.5
100
AcDbArc
 50
69.54069699999973
 51
90.0
  0
ARC
  5
5396
330
A
100
AcDbEntity
  8
0
  6
Continuous
 62
     7
100
AcDbCircle
 10
64.00000000000002
 20
-62.49999999999989
 30
0.0
 40
1.5
100
AcDbArc
 50
270.0
 51
290.4593030000001
  0
ARC
  5
5397
330
A
100
AcDbEntity
  8
0
  6
Continuous
 62
     7
100
AcDbCircle
 10
50.0
 20
-74.99999999999992
 30
0.0
 40
4.0
100
AcDbArc
 50
90.0
 51
128.2573409999991
  0
ARC
  5
5398
330
A
100
AcDbEntity
  8
0
  6
Continuous
 62
     7
100
AcDbCircle
 10
50.0
 20
-74.99999999999992
 30
0.0
 40
4.0
100
AcDbArc
 50
270.0
 51
90.0
  0
ARC
  5
5399
330
A
100
AcDbEntity
  8
0
  6
Continuous
 62
     7
100
AcDbCircle
 10
50.0
 20
-74.99999999999992
 30
0.0
 40
4.0
100
AcDbArc
 50
128.2573409999991
 51
270.0
  0
CIRCLE
  5
539A
330
A
100
AcDbEntity
  8
0
  6
Continuous
 62
     7
100
AcDbCircle
 10
50.0
 20
-74.99999999999992
 30
0.0
 40
2.908089
  0
LINE
  5
539B
330
A
100
AcDbEntity
  8
0
  6
Continuous
 62
     7
100
AcDbLine
 10
-5.349999999999976
 20
-70.9999999999999
 30
0.0
 11
-5.349999999999976
 21
-78.9999999999999
 31
0.0
  0
LINE
  5
539C
330
A
100
AcDbEntity
  8
0
  6
Continuous
 62
     9
100
AcDbLine
 10
1.650000000000025
 20
-70.9999999999999
 30
0.0
 11
1.650000000000025
 21
-78.9999999999999
 31
0.0
  0
LINE
  5
539D
330
A
100
AcDbEntity
  8
0
  6
Continuous
 62
     7
100
AcDbLine
 10
8.650000000000019
 20
-70.9999999999999
 30
0.0
 11
8.650000000000019
 21
-78.9999999999999
 31
0.0
  0
LINE
  5
539E
330
A
100
AcDbEntity
  8
0
  6
Continuous
 62
     7
100
AcDbLine
 10
63.0
 20
-80.49999999999988
 30
0.0
 11
63.0
 21
-83.4999999999999
 31
0.0
  0
LINE
  5
539F
330
A
100
AcDbEntity
  8
0
  6
Continuous
 62
     9
100
AcDbLine
 10
63.0
 20
-83.4999999999999
 30
0.0
 11
62.00000000000001
 21
-83.4999999999999
 31
0.0
  0
LINE
  5
53A0
330
A
100
AcDbEntity
  8
0
  6
Continuous
 62
     9
100
AcDbLine
 10
62.00000000000001
 20
-83.4999999999999
 30
0.0
 11
62.00000000000001
 21
-80.49999999999988
 31
0.0
  0
LINE
  5
53A1
330
A
100
AcDbEntity
  8
0
  6
Continuous
 62
     7
100
AcDbLine
 10
62.00000000000001
 20
-80.49999999999988
 30
0.0
 11
63.0
 21
-80.49999999999988
 31
0.0
  0
LINE
  5
53A2
330
A
100
AcDbEntity
  8
0
  6
Continuous
 62
     9
100
AcDbLine
 10
-12.49999999999997
 20
-80.49999999999988
 30
0.0
 11
-12.49999999999997
 21
-86.49999999999989
 31
0.0
  0
LINE
  5
53A3
330
A
100
AcDbEntity
  8
0
  6
Continuous
 62
     9
100
AcDbLine
 10
-16.99999999999997
 20
-86.49999999999989
 30
0.0
 11
-12.49999999999997
 21
-86.49999999999989
 31
0.0
  0
LINE
  5
53A4
330
A
100
AcDbEntity
  8
0
  6
Continuous
 62
     7
100
AcDbLine
 10
-16.99999999999997
 20
-86.49999999999989
 30
0.0
 11
-16.99999999999997
 21
-80.49999999999988
 31
0.0
  0
LINE
  5
53A5
330
A
100
AcDbEntity
  8
0
  6
Continuous
 62
     7
100
AcDbLine
 10
-16.99999999999997
 20
-80.49999999999988
 30
0.0
 11
-12.49999999999997
 21
-80.49999999999988
 31
0.0
  0
LINE
  5
53A6
330
A
100
AcDbEntity
  8
0
  6
Continuous
 62
     9
100
AcDbLine
 10
-12.49999999999997
 20
-86.49999999999989
 30
0.0
 11
59.00000000000002
 21
-86.49999999999989
 31
0.0
  0
ARC
  5
53A7
330
A
100
AcDbEntity
  8
0
  6
Continuous
 62
     9
100
AcDbCircle
 10
59.00000000000002
 20
-83.4999999999999
 30
0.0
 40
3.0
100
AcDbArc
 50
270.0
 51
0.0
  0
LINE
  5
53A8
330
A
100
AcDbEntity
  8
0
  6
Continuous
 62
     7
100
AcDbLine
 10
-12.49999999999997
 20
-80.49999999999988
 30
0.0
 11
62.00000000000001
 21
-80.49999999999988
 31
0.0
  0
ARC
  5
53A9
330
A
100
AcDbEntity
  8
0
  6
Continuous
 62
     7
100
AcDbCircle
 10
59.00000000000002
 20
-83.4999999999999
 30
0.0
 40
4.0
100
AcDbArc
 50
270.0
 51
0.0
  0
LINE
  5
53AA
330
A
100
AcDbEntity
  8
0
  6
Continuous
 62
     9
100
AcDbLine
 10
59.00000000000002
 20
-87.49999999999991
 30
0.0
 11
59.00000000000002
 21
-86.49999999999989
 31
0.0
  0
LINE
  5
53AB
330
A
100
AcDbEntity
  8
0
  6
Continuous
 62
     7
100
AcDbLine
 10
-12.49999999999997
 20
-87.49999999999991
 30
0.0
 11
-15.99999999999997
 21
-87.49999999999991
 31
0.0
  0
ARC
  5
53AC
330
A
100
AcDbEntity
  8
0
  6
Continuous
 62
     7
100
AcDbCircle
 10
-15.99999999999997
 20
-86.49999999999989
 30
0.0
 40
1.0
100
AcDbArc
 50
180.0
 51
270.0
  0
LINE
  5
53AD
330
A
100
AcDbEntity
  8
0
  6
Continuous
 62
     9
100
AcDbLine
 10
-12.49999999999997
 20
-87.49999999999991
 30
0.0
 11
-12.49999999999997
 21
-86.49999999999989
 31
0.0
  0
LINE
  5
53AE
330
A
100
AcDbEntity
  8
0
  6
Continuous
 62
     7
100
AcDbLine
 10
59.00000000000002
 20
-87.49999999999991
 30
0.0
 11
-12.49999999999997
 21
-87.49999999999991
 31
0.0
  0
ARC
  5
53AF
330
A
100
AcDbEntity
  8
0
  6
Continuous
 62
     7
100
AcDbCircle
 10
50.0
 20
-74.99999999999992
 30
0.0
 40
4.009999999999998
100
AcDbArc
 50
274.0472079999999
 51
85.95280000000004
  0
ARC
  5
53B0
330
A
100
AcDbEntity
  8
0
  6
Continuous
 62
     7
100
AcDbCircle
 10
50.0
 20
-74.99999999999992
 30
0.0
 40
4.009999999999998
100
AcDbArc
 50
94.04719999999995
 51
265.9527920000002
  0
LINE
  5
53B1
330
A
100
AcDbEntity
  8
0
  6
Continuous
 62
     7
100
AcDbLine
 10
60.5
 20
-69.9999999999999
 30
0.0
 11
63.0
 21
-69.9999999999999
 31
0.0
  0
LINE
  5
53B2
330
A
100
AcDbEntity
  8
0
  6
Continuous
 62
     7
100
AcDbLine
 10
8.800000000000025
 20
-70.9999999999999
 30
0.0
 11
8.800000000000025
 21
-78.9999999999999
 31
0.0
  0
LINE
  5
53B3
330
A
100
AcDbEntity
  8
0
  6
Continuous
 62
     7
100
AcDbLine
 10
63.0
 20
-80.49999999999988
 30
0.0
 11
63.0
 21
-69.9999999999999
 31
0.0
  0
LINE
  5
53B4
330
A
100
AcDbEntity
  8
0
  6
Continuous
 62
     7
100
AcDbLine
 10
-15.49999999999997
 20
-80.49999999999988
 30
0.0
 11
-15.99999999999997
 21
-80.49999999999988
 31
0.0
  0
ARC
  5
53B5
330
A
100
AcDbEntity
  8
0
  6
Continuous
 62
     7
100
AcDbCircle
 10
52.00564500000003
 20
-86.22083799999989
 30
0.0
 40
6.5
100
AcDbArc
 50
275.1304229999993
 51
348.6504460000003
  0
ARC
  5
53B6
330
A
100
AcDbEntity
  8
0
  6
Continuous
 62
     7
100
AcDbCircle
 10
52.40804900000003
 20
-90.7028099999999
 30
0.0
 40
2.0
100
AcDbArc
 50
251.9364990000006
 51
275.1304229999993
  0
ARC
  5
53B7
330
A
100
AcDbEntity
  8
0
  6
Continuous
 62
     7
100
AcDbCircle
 10
50.00500000000003
 20
-98.07083899999987
 30
0.0
 40
5.75
100
AcDbArc
 50
71.93649900000065
 51
105.722807
  0
ARC
  5
53B8
330
A
100
AcDbEntity
  8
0
  6
Continuous
 62
     7
100
AcDbCircle
 10
47.904877
 20
-90.61081299999987
 30
0.0
 40
2.0
100
AcDbArc
 50
250.1112600000007
 51
285.7228069999999
  0
ARC
  5
53B9
330
A
100
AcDbEntity
  8
0
  6
Continuous
 62
     7
100
AcDbCircle
 10
53.00779800000002
 20
-76.50548799999987
 30
0.0
 40
17.0
100
AcDbArc
 50
220.2959590000005
 51
250.1112600000007
  0
ARC
  5
53BA
330
A
100
AcDbEntity
  8
0
  6
Continuous
 62
     7
100
AcDbCircle
 10
53.00779800000002
 20
-73.4945119999999
 30
0.0
 40
17.0
100
AcDbArc
 50
109.8887399999993
 51
139.7040399999999
  0
ARC
  5
53BB
330
A
100
AcDbEntity
  8
0
  6
Continuous
 62
     7
100
AcDbCircle
 10
47.904877
 20
-59.38918699999992
 30
0.0
 40
2.0
100
AcDbArc
 50
74.27719299999998
 51
109.8887399999993
  0
ARC
  5
53BC
330
A
100
AcDbEntity
  8
0
  6
Continuous
 62
     7
100
AcDbCircle
 10
50.00500000000003
 20
-51.92916099999992
 30
0.0
 40
5.75
100
AcDbArc
 50
254.277193
 51
288.0635009999993
  0
ARC
  5
53BD
330
A
100
AcDbEntity
  8
0
  6
Continuous
 62
     7
100
AcDbCircle
 10
52.00564500000003
 20
-63.7791619999999
 30
0.0
 40
6.5
100
AcDbArc
 50
11.34955500000029
 51
84.86957700000067
  0
ARC
  5
53BE
330
A
100
AcDbEntity
  8
0
  6
Continuous
 62
     7
100
AcDbCircle
 10
52.40804900000003
 20
-59.2971909999999
 30
0.0
 40
2.0
100
AcDbArc
 50
84.86957700000067
 51
108.0635009999993
  0
ARC
  5
53BF
330
A
100
AcDbEntity
  8
0
  6
Continuous
 62
     7
100
AcDbCircle
 10
17.87017100000001
 20
-62.89999999999991
 30
0.0
 40
0.5
100
AcDbArc
 50
90.0
 51
126.8698999999998
  0
ARC
  5
53C0
330
A
100
AcDbEntity
  8
0
  6
Continuous
 62
     7
100
AcDbCircle
 10
27.82982900000003
 20
-62.89999999999991
 30
0.0
 40
0.5
100
AcDbArc
 50
53.1301000000001
 51
90.0
  0
ARC
  5
53C1
330
A
100
AcDbEntity
  8
0
  6
Continuous
 62
     9
100
AcDbCircle
 10
-60.82499999999997
 20
66.00000000000007
 30
0.0
 40
2.5
100
AcDbArc
 50
180.0
 51
90.0
  0
ARC
  5
53C2
330
A
100
AcDbEntity
  8
0
  6
Continuous
 62
     9
100
AcDbCircle
 10
-100.8249999999999
 20
66.00000000000007
 30
0.0
 40
2.5
100
AcDbArc
 50
180.0
 51
90.0
  0
ARC
  5
53C3
330
A
100
AcDbEntity
  8
0
  6
Continuous
 62
     9
100
AcDbCircle
 10
-60.82499999999997
 20
4.0000000000001
 30
0.0
 40
2.5
100
AcDbArc
 50
180.0
 51
90.0
  0
ARC
  5
53C4
330
A
100
AcDbEntity
  8
0
  6
Continuous
 62
     9
100
AcDbCircle
 10
-100.8249999999999
 20
4.0000000000001
 30
0.0
 40
2.5
100
AcDbArc
 50
180.0
 51
90.0
  0
CIRCLE
  5
53C5
330
A
100
AcDbEntity
  8
0
  6
Continuous
 62
     7
100
AcDbCircle
 10
-60.82499999999997
 20
66.00000000000007
 30
0.0
 40
1.75
  0
CIRCLE
  5
53C6
330
A
100
AcDbEntity
  8
0
  6
Continuous
 62
     7
100
AcDbCircle
 10
-100.8249999999999
 20
4.0000000000001
 30
0.0
 40
1.75
  0
LINE
  5
53C7
330
A
100
AcDbEntity
  8
0
  6
Continuous
 62
     7
100
AcDbLine
 10
-72.57499999999994
 20
34.13397500000012
 30
0.0
 11
-74.07499999999997
 21
33.26794900000014
 31
0.0
  0
LINE
  5
53C8
330
A
100
AcDbEntity
  8
0
  6
Continuous
 62
     7
100
AcDbLine
 10
-72.57499999999994
 20
35.86602500000009
 30
0.0
 11
-72.57499999999994
 21
34.13397500000012
 31
0.0
  0
LINE
  5
53C9
330
A
100
AcDbEntity
  8
0
  6
Continuous
 62
     7
100
AcDbLine
 10
-75.57499999999997
 20
35.86602500000009
 30
0.0
 11
-74.07499999999997
 21
36.73205100000006
 31
0.0
  0
LINE
  5
53CA
330
A
100
AcDbEntity
  8
0
  6
Continuous
 62
     7
100
AcDbLine
 10
-75.57499999999997
 20
34.13397500000012
 30
0.0
 11
-75.57499999999997
 21
35.86602500000009
 31
0.0
  0
LINE
  5
53CB
330
A
100
AcDbEntity
  8
0
  6
Continuous
 62
     7
100
AcDbLine
 10
-74.07499999999997
 20
36.73205100000006
 30
0.0
 11
-72.57499999999994
 21
35.86602500000009
 31
0.0
  0
LINE
  5
53CC
330
A
100
AcDbEntity
  8
0
  6
Continuous
 62
     7
100
AcDbLine
 10
-74.07499999999997
 20
33.26794900000014
 30
0.0
 11
-75.57499999999997
 21
34.13397500000012
 31
0.0
  0
ARC
  5
53CD
330
A
100
AcDbEntity
  8
0
  6
Continuous
 62
     7
100
AcDbCircle
 10
-74.07499999999997
 20
35.0000000000001
 30
0.0
 40
3.5
100
AcDbArc
 50
338.2132110000002
 51
0.0
  0
ARC
  5
53CE
330
A
100
AcDbEntity
  8
0
  6
Continuous
 62
     7
100
AcDbCircle
 10
-74.07499999999997
 20
35.0000000000001
 30
0.0
 40
3.5
100
AcDbArc
 50
321.7867889999998
 51
338.2132110000002
  0
ARC
  5
53CF
330
A
100
AcDbEntity
  8
0
  6
Continuous
 62
     7
100
AcDbCircle
 10
-74.07499999999997
 20
35.0000000000001
 30
0.0
 40
3.5
100
AcDbArc
 50
38.21321100000016
 51
321.7867889999998
  0
ARC
  5
53D0
330
A
100
AcDbEntity
  8
0
  6
Continuous
 62
     7
100
AcDbCircle
 10
-74.07499999999997
 20
35.0000000000001
 30
0.0
 40
3.5
100
AcDbArc
 50
21.78678899999983
 51
38.21321100000016
  0
ARC
  5
53D1
330
A
100
AcDbEntity
  8
0
  6
Continuous
 62
     7
100
AcDbCircle
 10
-74.07499999999997
 20
35.0000000000001
 30
0.0
 40
3.5
100
AcDbArc
 50
0.0
 51
21.78678899999983
  0
LINE
  5
53D2
330
A
100
AcDbEntity
  8
0
  6
Continuous
 62
     7
100
AcDbLine
 10
-89.07499999999997
 20
35.86602500000009
 30
0.0
 11
-87.57499999999994
 21
36.73205100000006
 31
0.0
  0
LINE
  5
53D3
330
A
100
AcDbEntity
  8
0
  6
Continuous
 62
     7
100
AcDbLine
 10
-89.07499999999997
 20
34.13397500000012
 30
0.0
 11
-89.07499999999997
 21
35.86602500000009
 31
0.0
  0
LINE
  5
53D4
330
A
100
AcDbEntity
  8
0
  6
Continuous
 62
     7
100
AcDbLine
 10
-87.57499999999994
 20
33.26794900000014
 30
0.0
 11
-89.07499999999997
 21
34.13397500000012
 31
0.0
  0
LINE
  5
53D5
330
A
100
AcDbEntity
  8
0
  6
Continuous
 62
     7
100
AcDbLine
 10
-86.07499999999998
 20
34.13397500000012
 30
0.0
 11
-87.57499999999994
 21
33.26794900000014
 31
0.0
  0
LINE
  5
53D6
330
A
100
AcDbEntity
  8
0
  6
Continuous
 62
     7
100
AcDbLine
 10
-86.07499999999998
 20
35.86602500000009
 30
0.0
 11
-86.07499999999998
 21
34.13397500000012
 31
0.0
  0
LINE
  5
53D7
330
A
100
AcDbEntity
  8
0
  6
Continuous
 62
     7
100
AcDbLine
 10
-87.57499999999994
 20
36.73205100000006
 30
0.0
 11
-86.07499999999998
 21
35.86602500000009
 31
0.0
  0
ARC
  5
53D8
330
A
100
AcDbEntity
  8
0
  6
Continuous
 62
     7
100
AcDbCircle
 10
-87.57499999999994
 20
35.0000000000001
 30
0.0
 40
3.5
100
AcDbArc
 50
218.2132110000001
 51
0.0
  0
ARC
  5
53D9
330
A
100
AcDbEntity
  8
0
  6
Continuous
 62
     7
100
AcDbCircle
 10
-87.57499999999994
 20
35.0000000000001
 30
0.0
 40
3.5
100
AcDbArc
 50
201.7867889999998
 51
218.2132110000001
  0
ARC
  5
53DA
330
A
100
AcDbEntity
  8
0
  6
Continuous
 62
     7
100
AcDbCircle
 10
-87.57499999999994
 20
35.0000000000001
 30
0.0
 40
3.5
100
AcDbArc
 50
141.7867889999998
 51
158.2132110000001
  0
ARC
  5
53DB
330
A
100
AcDbEntity
  8
0
  6
Continuous
 62
     7
100
AcDbCircle
 10
-87.57499999999994
 20
35.0000000000001
 30
0.0
 40
3.5
100
AcDbArc
 50
0.0
 51
141.7867889999998
  0
LINE
  5
53DC
330
A
100
AcDbEntity
  8
0
  6
Continuous
 62
     7
100
AcDbLine
 10
-70.82499999999997
 20
85.0000000000001
 30
0.0
 11
-71.32499999999994
 21
85.0000000000001
 31
0.0
  0
LINE
  5
53DD
330
A
100
AcDbEntity
  8
0
  6
Continuous
 62
     7
100
AcDbLine
 10
-70.82499999999997
 20
36.2990380000001
 30
0.0
 11
-70.82499999999997
 21
85.0000000000001
 31
0.0
  0
LINE
  5
53DE
330
A
100
AcDbEntity
  8
0
  6
Continuous
 62
     7
100
AcDbLine
 10
-71.32499999999994
 20
37.16506400000012
 30
0.0
 11
-71.32499999999994
 21
85.0000000000001
 31
0.0
  0
ARC
  5
53DF
330
A
100
AcDbEntity
  8
0
  6
Continuous
 62
     7
100
AcDbCircle
 10
-74.07499999999997
 20
35.0000000000001
 30
0.0
 40
3.5
100
AcDbArc
 50
21.78678899999983
 51
38.21321100000016
  0
LINE
  5
53E0
330
A
100
AcDbEntity
  8
0
  6
Continuous
 62
     7
100
AcDbLine
 10
-90.32499999999997
 20
-14.9999999999999
 30
0.0
 11
-90.82499999999994
 21
-14.9999999999999
 31
0.0
  0
LINE
  5
53E1
330
A
100
AcDbEntity
  8
0
  6
Continuous
 62
     7
100
AcDbLine
 10
-90.82499999999994
 20
-14.9999999999999
 30
0.0
 11
-90.82499999999994
 21
33.7009620000001
 31
0.0
  0
LINE
  5
53E2
330
A
100
AcDbEntity
  8
0
  6
Continuous
 62
     7
100
AcDbLine
 10
-90.32499999999997
 20
-14.9999999999999
 30
0.0
 11
-90.32499999999997
 21
32.83493600000007
 31
0.0
  0
ARC
  5
53E3
330
A
100
AcDbEntity
  8
0
  6
Continuous
 62
     7
100
AcDbCircle
 10
-87.57499999999994
 20
35.0000000000001
 30
0.0
 40
3.5
100
AcDbArc
 50
201.7867889999998
 51
218.2132110000001
  0
LINE
  5
53E4
330
A
100
AcDbEntity
  8
0
  6
Continuous
 62
     7
100
AcDbLine
 10
-90.82499999999994
 20
-14.9999999999999
 30
0.0
 11
-108.3249999999999
 21
-14.9999999999999
 31
0.0
  0
LINE
  5
53E5
330
A
100
AcDbEntity
  8
0
  6
Continuous
 62
     7
100
AcDbLine
 10
-90.82499999999994
 20
85.0000000000001
 30
0.0
 11
-108.3249999999999
 21
85.0000000000001
 31
0.0
  0
LINE
  5
53E6
330
A
100
AcDbEntity
  8
0
  6
Continuous
 62
     7
100
AcDbLine
 10
-90.82499999999994
 20
36.2990380000001
 30
0.0
 11
-90.82499999999994
 21
85.0000000000001
 31
0.0
  0
CIRCLE
  5
53E7
330
A
100
AcDbEntity
  8
0
  6
Continuous
 62
     7
100
AcDbCircle
 10
-100.8249999999999
 20
75.0000000000001
 30
0.0
 40
2.649999999999999
  0
CIRCLE
  5
53E8
330
A
100
AcDbEntity
  8
0
  6
Continuous
 62
     7
100
AcDbCircle
 10
-100.8249999999999
 20
4.0000000000001
 30
0.0
 40
2.1
  0
CIRCLE
  5
53E9
330
A
100
AcDbEntity
  8
0
  6
Continuous
 62
     7
100
AcDbCircle
 10
-100.8249999999999
 20
-4.999999999999894
 30
0.0
 40
2.649999999999999
  0
LINE
  5
53EA
330
A
100
AcDbEntity
  8
0
  6
Continuous
 62
     7
100
AcDbLine
 10
-108.3249999999999
 20
-14.9999999999999
 30
0.0
 11
-108.3249999999999
 21
85.0000000000001
 31
0.0
  0
ARC
  5
53EB
330
A
100
AcDbEntity
  8
0
  6
Continuous
 62
     7
100
AcDbCircle
 10
-87.57499999999994
 20
35.0000000000001
 30
0.0
 40
3.5
100
AcDbArc
 50
158.2132110000001
 51
201.7867889999998
  0
CIRCLE
  5
53EC
330
A
100
AcDbEntity
  8
0
  6
Continuous
 62
     7
100
AcDbCircle
 10
-100.8249999999999
 20
66.00000000000007
 30
0.0
 40
2.1
  0
LINE
  5
53ED
330
A
100
AcDbEntity
  8
0
  6
Continuous
 62
     7
100
AcDbLine
 10
-70.82499999999997
 20
-14.9999999999999
 30
0.0
 11
-71.32499999999994
 21
-14.9999999999999
 31
0.0
  0
LINE
  5
53EE
330
A
100
AcDbEntity
  8
0
  6
Continuous
 62
     7
100
AcDbLine
 10
-71.32499999999994
 20
-14.9999999999999
 30
0.0
 11
-71.32499999999994
 21
32.83493600000007
 31
0.0
  0
LINE
  5
53EF
330
A
100
AcDbEntity
  8
0
  6
Continuous
 62
     7
100
AcDbLine
 10
-70.82499999999997
 20
-14.9999999999999
 30
0.0
 11
-70.82499999999997
 21
33.7009620000001
 31
0.0
  0
ARC
  5
53F0
330
A
100
AcDbEntity
  8
0
  6
Continuous
 62
     7
100
AcDbCircle
 10
-74.07499999999997
 20
35.0000000000001
 30
0.0
 40
3.5
100
AcDbArc
 50
321.7867889999998
 51
338.2132110000002
  0
LINE
  5
53F1
330
A
100
AcDbEntity
  8
0
  6
Continuous
 62
     7
100
AcDbLine
 10
-53.32499999999997
 20
-14.9999999999999
 30
0.0
 11
-70.82499999999997
 21
-14.9999999999999
 31
0.0
  0
LINE
  5
53F2
330
A
100
AcDbEntity
  8
0
  6
Continuous
 62
     7
100
AcDbLine
 10
-53.32499999999997
 20
85.0000000000001
 30
0.0
 11
-70.82499999999997
 21
85.0000000000001
 31
0.0
  0
CIRCLE
  5
53F3
330
A
100
AcDbEntity
  8
0
  6
Continuous
 62
     7
100
AcDbCircle
 10
-60.82499999999997
 20
4.0000000000001
 30
0.0
 40
2.1
  0
LINE
  5
53F4
330
A
100
AcDbEntity
  8
0
  6
Continuous
 62
     7
100
AcDbLine
 10
-53.32499999999997
 20
-14.9999999999999
 30
0.0
 11
-53.32499999999997
 21
85.0000000000001
 31
0.0
  0
CIRCLE
  5
53F5
330
A
100
AcDbEntity
  8
0
  6
Continuous
 62
     7
100
AcDbCircle
 10
-60.82499999999997
 20
-4.999999999999894
 30
0.0
 40
2.649999999999999
  0
CIRCLE
  5
53F6
330
A
100
AcDbEntity
  8
0
  6
Continuous
 62
     7
100
AcDbCircle
 10
-60.82499999999997
 20
75.0000000000001
 30
0.0
 40
2.649999999999999
  0
ARC
  5
53F7
330
A
100
AcDbEntity
  8
0
  6
Continuous
 62
     7
100
AcDbCircle
 10
-74.07499999999997
 20
35.0000000000001
 30
0.0
 40
3.5
100
AcDbArc
 50
338.2132110000002
 51
21.78678899999983
  0
CIRCLE
  5
53F8
330
A
100
AcDbEntity
  8
0
  6
Continuous
 62
     7
100
AcDbCircle
 10
-60.82499999999997
 20
66.00000000000007
 30
0.0
 40
2.1
  0
LINE
  5
53F9
330
A
100
AcDbEntity
  8
0
  6
Continuous
 62
     7
100
AcDbLine
 10
-90.32499999999997
 20
37.16506400000012
 30
0.0
 11
-90.32499999999997
 21
85.0000000000001
 31
0.0
  0
LINE
  5
53FA
330
A
100
AcDbEntity
  8
0
  6
Continuous
 62
     7
100
AcDbLine
 10
-90.32499999999997
 20
85.0000000000001
 30
0.0
 11
-90.82499999999994
 21
85.0000000000001
 31
0.0
  0
ARC
  5
53FB
330
A
100
AcDbEntity
  8
0
  6
Continuous
 62
     7
100
AcDbCircle
 10
-87.57499999999994
 20
35.0000000000001
 30
0.0
 40
3.5
100
AcDbArc
 50
141.7867889999998
 51
158.2132110000001
  0
LINE
  5
53FC
330
A
100
AcDbEntity
  8
0
  6
Continuous
 62
     7
100
AcDbLine
 10
-71.32499999999994
 20
-14.9999999999999
 30
0.0
 11
-90.32499999999997
 21
-14.9999999999999
 31
0.0
  0
LINE
  5
53FD
330
A
100
AcDbEntity
  8
0
  6
Continuous
 62
     7
100
AcDbLine
 10
-71.32499999999994
 20
85.0000000000001
 30
0.0
 11
-90.32499999999997
 21
85.0000000000001
 31
0.0
  0
ARC
  5
53FE
330
A
100
AcDbEntity
  8
0
  6
Continuous
 62
     7
100
AcDbCircle
 10
-74.07499999999997
 20
35.0000000000001
 30
0.0
 40
3.5
100
AcDbArc
 50
38.21321100000016
 51
321.7867889999998
  0
ARC
  5
53FF
330
A
100
AcDbEntity
  8
0
  6
Continuous
 62
     7
100
AcDbCircle
 10
-87.57499999999994
 20
35.0000000000001
 30
0.0
 40
3.5
100
AcDbArc
 50
0.0
 51
141.7867889999998
  0
ARC
  5
5400
330
A
100
AcDbEntity
  8
0
  6
Continuous
 62
     7
100
AcDbCircle
 10
-87.57499999999994
 20
35.0000000000001
 30
0.0
 40
3.5
100
AcDbArc
 50
218.2132110000001
 51
0.0
  0
ARC
  5
5401
330
A
100
AcDbEntity
  8
0
  6
Continuous
 62
     9
100
AcDbCircle
 10
114.1749999999999
 20
66.00000000000007
 30
0.0
 40
2.5
100
AcDbArc
 50
90.0
 51
0.0
  0
ARC
  5
5402
330
A
100
AcDbEntity
  8
0
  6
Continuous
 62
     9
100
AcDbCircle
 10
154.1749999999999
 20
66.00000000000007
 30
0.0
 40
2.5
100
AcDbArc
 50
90.0
 51
0.0
  0
ARC
  5
5403
330
A
100
AcDbEntity
  8
0
  6
Continuous
 62
     9
100
AcDbCircle
 10
114.1749999999999
 20
4.0000000000001
 30
0.0
 40
2.5
100
AcDbArc
 50
90.0
 51
0.0
  0
ARC
  5
5404
330
A
100
AcDbEntity
  8
0
  6
Continuous
 62
     9
100
AcDbCircle
 10
154.1749999999999
 20
4.0000000000001
 30
0.0
 40
2.5
100
AcDbArc
 50
90.0
 51
0.0
  0
LINE
  5
5405
330
A
100
AcDbEntity
  8
0
  6
Continuous
 62
     7
100
AcDbLine
 10
121.675
 20
-10.4999999999999
 30
0.0
 11
121.675
 21
80.50000000000009
 31
0.0
  0
LINE
  5
5406
330
A
100
AcDbEntity
  8
0
  6
Continuous
 62
     9
100
AcDbLine
 10
121.675
 20
80.50000000000009
 30
0.0
 11
122.675
 21
80.50000000000009
 31
0.0
  0
LINE
  5
5407
330
A
100
AcDbEntity
  8
0
  6
Continuous
 62
     9
100
AcDbLine
 10
122.675
 20
80.50000000000009
 30
0.0
 11
122.675
 21
-10.4999999999999
 31
0.0
  0
LINE
  5
5408
330
A
100
AcDbEntity
  8
0
  6
Continuous
 62
     9
100
AcDbLine
 10
121.675
 20
-10.4999999999999
 30
0.0
 11
122.675
 21
-10.4999999999999
 31
0.0
  0
LINE
  5
5409
330
A
100
AcDbEntity
  8
0
  6
Continuous
 62
     7
100
AcDbLine
 10
121.675
 20
80.50000000000009
 30
0.0
 11
121.675
 21
84.00000000000011
 31
0.0
  0
ARC
  5
540A
330
A
100
AcDbEntity
  8
0
  6
Continuous
 62
     7
100
AcDbCircle
 10
122.675
 20
84.00000000000011
 30
0.0
 40
1.0
100
AcDbArc
 50
90.0
 51
180.0
  0
LINE
  5
540B
330
A
100
AcDbEntity
  8
0
  6
Continuous
 62
     9
100
AcDbLine
 10
122.675
 20
85.0000000000001
 30
0.0
 11
122.675
 21
80.50000000000009
 31
0.0
  0
LINE
  5
540C
330
A
100
AcDbEntity
  8
0
  6
Continuous
 62
     9
100
AcDbLine
 10
122.675
 20
-10.4999999999999
 30
0.0
 11
128.6749999999999
 21
-10.4999999999999
 31
0.0
  0
LINE
  5
540D
330
A
100
AcDbEntity
  8
0
  6
Continuous
 62
     9
100
AcDbLine
 10
128.6749999999999
 20
80.50000000000009
 30
0.0
 11
122.675
 21
80.50000000000009
 31
0.0
  0
LINE
  5
540E
330
A
100
AcDbEntity
  8
0
  6
Continuous
 62
     7
100
AcDbLine
 10
128.6749999999999
 20
-10.4999999999999
 30
0.0
 11
128.6749999999999
 21
80.50000000000009
 31
0.0
  0
LINE
  5
540F
330
A
100
AcDbEntity
  8
0
  6
Continuous
 62
     7
100
AcDbLine
 10
122.675
 20
85.0000000000001
 30
0.0
 11
128.6749999999999
 21
85.0000000000001
 31
0.0
  0
LINE
  5
5410
330
A
100
AcDbEntity
  8
0
  6
Continuous
 62
     7
100
AcDbLine
 10
128.6749999999999
 20
85.0000000000001
 30
0.0
 11
128.6749999999999
 21
80.50000000000009
 31
0.0
  0
LINE
  5
5411
330
A
100
AcDbEntity
  8
0
  6
Continuous
 62
     7
100
AcDbLine
 10
121.675
 20
-13.9999999999999
 30
0.0
 11
121.675
 21
-10.4999999999999
 31
0.0
  0
LINE
  5
5412
330
A
100
AcDbEntity
  8
0
  6
Continuous
 62
     9
100
AcDbLine
 10
122.675
 20
-10.4999999999999
 30
0.0
 11
122.675
 21
-14.9999999999999
 31
0.0
  0
ARC
  5
5413
330
A
100
AcDbEntity
  8
0
  6
Continuous
 62
     7
100
AcDbCircle
 10
122.675
 20
-13.9999999999999
 30
0.0
 40
1.0
100
AcDbArc
 50
180.0
 51
270.0
  0
LINE
  5
5414
330
A
100
AcDbEntity
  8
0
  6
Continuous
 62
     7
100
AcDbLine
 10
128.6749999999999
 20
-14.9999999999999
 30
0.0
 11
122.675
 21
-14.9999999999999
 31
0.0
  0
LINE
  5
5415
330
A
100
AcDbEntity
  8
0
  6
Continuous
 62
     7
100
AcDbLine
 10
128.6749999999999
 20
-10.4999999999999
 30
0.0
 11
128.6749999999999
 21
-14.9999999999999
 31
0.0
  0
LINE
  5
5416
330
A
100
AcDbEntity
  8
0
  6
Continuous
 62
     9
100
AcDbLine
 10
130.175
 20
-7.499999999999895
 30
0.0
 11
129.175
 21
-7.499999999999895
 31
0.0
  0
LINE
  5
5417
330
A
100
AcDbEntity
  8
0
  6
Continuous
 62
     9
100
AcDbLine
 10
129.175
 20
-7.499999999999895
 30
0.0
 11
128.6749999999999
 21
-7.499999999999895
 31
0.0
  0
LINE
  5
5418
330
A
100
AcDbEntity
  8
0
  6
Continuous
 62
     7
100
AcDbLine
 10
130.175
 20
-13.4999999999999
 30
0.0
 11
129.175
 21
-13.4999999999999
 31
0.0
  0
LINE
  5
5419
330
A
100
AcDbEntity
  8
0
  6
Continuous
 62
     7
100
AcDbLine
 10
129.175
 20
-13.4999999999999
 30
0.0
 11
128.6749999999999
 21
-13.4999999999999
 31
0.0
  0
LINE
  5
541A
330
A
100
AcDbEntity
  8
0
  6
Continuous
 62
     7
100
AcDbLine
 10
130.175
 20
-13.4999999999999
 30
0.0
 11
130.175
 21
-7.499999999999895
 31
0.0
  0
LINE
  5
541B
330
A
100
AcDbEntity
  8
0
  6
Continuous
 62
     9
100
AcDbLine
 10
130.175
 20
77.5000000000001
 30
0.0
 11
129.175
 21
77.5000000000001
 31
0.0
  0
LINE
  5
541C
330
A
100
AcDbEntity
  8
0
  6
Continuous
 62
     9
100
AcDbLine
 10
129.175
 20
77.5000000000001
 30
0.0
 11
128.6749999999999
 21
77.5000000000001
 31
0.0
  0
LINE
  5
541D
330
A
100
AcDbEntity
  8
0
  6
Continuous
 62
     7
100
AcDbLine
 10
130.175
 20
-7.499999999999895
 30
0.0
 11
130.175
 21
77.5000000000001
 31
0.0
  0
LINE
  5
541E
330
A
100
AcDbEntity
  8
0
  6
Continuous
 62
     7
100
AcDbLine
 10
130.175
 20
83.50000000000006
 30
0.0
 11
129.175
 21
83.50000000000006
 31
0.0
  0
LINE
  5
541F
330
A
100
AcDbEntity
  8
0
  6
Continuous
 62
     7
100
AcDbLine
 10
129.175
 20
83.50000000000006
 30
0.0
 11
128.6749999999999
 21
83.50000000000006
 31
0.0
  0
LINE
  5
5420
330
A
100
AcDbEntity
  8
0
  6
Continuous
 62
     7
100
AcDbLine
 10
130.175
 20
77.5000000000001
 30
0.0
 11
130.175
 21
83.50000000000006
 31
0.0
  0
LINE
  5
5421
330
A
100
AcDbEntity
  8
0
  6
Continuous
 62
     9
100
AcDbLine
 10
139.6749999999999
 20
-7.499999999999895
 30
0.0
 11
139.1749999999999
 21
-7.499999999999895
 31
0.0
  0
LINE
  5
5422
330
A
100
AcDbEntity
  8
0
  6
Continuous
 62
     9
100
AcDbLine
 10
139.1749999999999
 20
-7.499999999999895
 30
0.0
 11
138.1749999999999
 21
-7.499999999999895
 31
0.0
  0
LINE
  5
5423
330
A
100
AcDbEntity
  8
0
  6
Continuous
 62
     7
100
AcDbLine
 10
139.6749999999999
 20
-13.4999999999999
 30
0.0
 11
139.1749999999999
 21
-13.4999999999999
 31
0.0
  0
LINE
  5
5424
330
A
100
AcDbEntity
  8
0
  6
Continuous
 62
     7
100
AcDbLine
 10
139.1749999999999
 20
-13.4999999999999
 30
0.0
 11
138.1749999999999
 21
-13.4999999999999
 31
0.0
  0
LINE
  5
5425
330
A
100
AcDbEntity
  8
0
  6
Continuous
 62
     7
100
AcDbLine
 10
138.1749999999999
 20
-13.4999999999999
 30
0.0
 11
138.1749999999999
 21
-7.499999999999895
 31
0.0
  0
LINE
  5
5426
330
A
100
AcDbEntity
  8
0
  6
Continuous
 62
     9
100
AcDbLine
 10
139.6749999999999
 20
77.5000000000001
 30
0.0
 11
139.1749999999999
 21
77.5000000000001
 31
0.0
  0
LINE
  5
5427
330
A
100
AcDbEntity
  8
0
  6
Continuous
 62
     9
100
AcDbLine
 10
139.1749999999999
 20
77.5000000000001
 30
0.0
 11
138.1749999999999
 21
77.5000000000001
 31
0.0
  0
LINE
  5
5428
330
A
100
AcDbEntity
  8
0
  6
Continuous
 62
     7
100
AcDbLine
 10
138.1749999999999
 20
-7.499999999999895
 30
0.0
 11
138.1749999999999
 21
77.5000000000001
 31
0.0
  0
LINE
  5
5429
330
A
100
AcDbEntity
  8
0
  6
Continuous
 62
     7
100
AcDbLine
 10
139.6749999999999
 20
83.50000000000006
 30
0.0
 11
139.1749999999999
 21
83.50000000000006
 31
0.0
  0
LINE
  5
542A
330
A
100
AcDbEntity
  8
0
  6
Continuous
 62
     7
100
AcDbLine
 10
139.1749999999999
 20
83.50000000000006
 30
0.0
 11
138.1749999999999
 21
83.50000000000006
 31
0.0
  0
LINE
  5
542B
330
A
100
AcDbEntity
  8
0
  6
Continuous
 62
     7
100
AcDbLine
 10
138.1749999999999
 20
77.5000000000001
 30
0.0
 11
138.1749999999999
 21
83.50000000000006
 31
0.0
  0
LINE
  5
542C
330
A
100
AcDbEntity
  8
0
  6
Continuous
 62
     9
100
AcDbLine
 10
129.175
 20
-7.499999999999895
 30
0.0
 11
128.6749999999999
 21
-7.499999999999895
 31
0.0
  0
LINE
  5
542D
330
A
100
AcDbEntity
  8
0
  6
Continuous
 62
     7
100
AcDbLine
 10
129.175
 20
-13.4999999999999
 30
0.0
 11
129.175
 21
-7.499999999999895
 31
0.0
  0
LINE
  5
542E
330
A
100
AcDbEntity
  8
0
  6
Continuous
 62
     7
100
AcDbLine
 10
129.175
 20
-13.4999999999999
 30
0.0
 11
128.6749999999999
 21
-13.4999999999999
 31
0.0
  0
LINE
  5
542F
330
A
100
AcDbEntity
  8
0
  6
Continuous
 62
     9
100
AcDbLine
 10
129.175
 20
77.5000000000001
 30
0.0
 11
128.6749999999999
 21
77.5000000000001
 31
0.0
  0
LINE
  5
5430
330
A
100
AcDbEntity
  8
0
  6
Continuous
 62
     7
100
AcDbLine
 10
129.175
 20
-7.499999999999895
 30
0.0
 11
129.175
 21
77.5000000000001
 31
0.0
  0
LINE
  5
5431
330
A
100
AcDbEntity
  8
0
  6
Continuous
 62
     7
100
AcDbLine
 10
129.175
 20
83.50000000000006
 30
0.0
 11
128.6749999999999
 21
83.50000000000006
 31
0.0
  0
LINE
  5
5432
330
A
100
AcDbEntity
  8
0
  6
Continuous
 62
     7
100
AcDbLine
 10
129.175
 20
77.5000000000001
 30
0.0
 11
129.175
 21
83.50000000000006
 31
0.0
  0
LINE
  5
5433
330
A
100
AcDbEntity
  8
0
  6
Continuous
 62
     9
100
AcDbLine
 10
139.6749999999999
 20
-7.499999999999895
 30
0.0
 11
139.1749999999999
 21
-7.499999999999895
 31
0.0
  0
LINE
  5
5434
330
A
100
AcDbEntity
  8
0
  6
Continuous
 62
     7
100
AcDbLine
 10
139.6749999999999
 20
-13.4999999999999
 30
0.0
 11
139.1749999999999
 21
-13.4999999999999
 31
0.0
  0
LINE
  5
5435
330
A
100
AcDbEntity
  8
0
  6
Continuous
 62
     7
100
AcDbLine
 10
139.1749999999999
 20
-13.4999999999999
 30
0.0
 11
139.1749999999999
 21
-7.499999999999895
 31
0.0
  0
LINE
  5
5436
330
A
100
AcDbEntity
  8
0
  6
Continuous
 62
     9
100
AcDbLine
 10
139.6749999999999
 20
77.5000000000001
 30
0.0
 11
139.1749999999999
 21
77.5000000000001
 31
0.0
  0
LINE
  5
5437
330
A
100
AcDbEntity
  8
0
  6
Continuous
 62
     7
100
AcDbLine
 10
139.1749999999999
 20
-7.499999999999895
 30
0.0
 11
139.1749999999999
 21
77.5000000000001
 31
0.0
  0
LINE
  5
5438
330
A
100
AcDbEntity
  8
0
  6
Continuous
 62
     7
100
AcDbLine
 10
139.6749999999999
 20
83.50000000000006
 30
0.0
 11
139.1749999999999
 21
83.50000000000006
 31
0.0
  0
LINE
  5
5439
330
A
100
AcDbEntity
  8
0
  6
Continuous
 62
     7
100
AcDbLine
 10
139.1749999999999
 20
77.5000000000001
 30
0.0
 11
139.1749999999999
 21
83.50000000000006
 31
0.0
  0
LINE
  5
543A
330
A
100
AcDbEntity
  8
0
  6
Continuous
 62
     7
100
AcDbLine
 10
112.9249999999999
 20
66.72168800000007
 30
0.0
 11
114.1749999999999
 21
67.44337600000007
 31
0.0
  0
LINE
  5
543B
330
A
100
AcDbEntity
  8
0
  6
Continuous
 62
     7
100
AcDbLine
 10
112.9249999999999
 20
65.27831200000012
 30
0.0
 11
112.9249999999999
 21
66.72168800000007
 31
0.0
  0
LINE
  5
543C
330
A
100
AcDbEntity
  8
0
  6
Continuous
 62
     7
100
AcDbLine
 10
114.1749999999999
 20
64.55662400000007
 30
0.0
 11
112.9249999999999
 21
65.27831200000012
 31
0.0
  0
LINE
  5
543D
330
A
100
AcDbEntity
  8
0
  6
Continuous
 62
     7
100
AcDbLine
 10
115.425
 20
65.27831200000012
 30
0.0
 11
114.1749999999999
 21
64.55662400000007
 31
0.0
  0
LINE
  5
543E
330
A
100
AcDbEntity
  8
0
  6
Continuous
 62
     7
100
AcDbLine
 10
115.425
 20
66.72168800000007
 30
0.0
 11
115.425
 21
65.27831200000012
 31
0.0
  0
LINE
  5
543F
330
A
100
AcDbEntity
  8
0
  6
Continuous
 62
     7
100
AcDbLine
 10
114.1749999999999
 20
67.44337600000007
 30
0.0
 11
115.425
 21
66.72168800000007
 31
0.0
  0
CIRCLE
  5
5440
330
A
100
AcDbEntity
  8
0
  6
Continuous
 62
     7
100
AcDbCircle
 10
114.1749999999999
 20
66.00000000000007
 30
0.0
 40
1.75
  0
LINE
  5
5441
330
A
100
AcDbEntity
  8
0
  6
Continuous
 62
     7
100
AcDbLine
 10
152.925
 20
4.721688000000099
 30
0.0
 11
154.1749999999999
 21
5.443376000000072
 31
0.0
  0
LINE
  5
5442
330
A
100
AcDbEntity
  8
0
  6
Continuous
 62
     7
100
AcDbLine
 10
154.1749999999999
 20
2.556624000000127
 30
0.0
 11
152.925
 21
3.278312000000098
 31
0.0
  0
LINE
  5
5443
330
A
100
AcDbEntity
  8
0
  6
Continuous
 62
     7
100
AcDbLine
 10
155.4249999999999
 20
3.278312000000098
 30
0.0
 11
154.1749999999999
 21
2.556624000000127
 31
0.0
  0
LINE
  5
5444
330
A
100
AcDbEntity
  8
0
  6
Continuous
 62
     7
100
AcDbLine
 10
155.4249999999999
 20
4.721688000000099
 30
0.0
 11
155.4249999999999
 21
3.278312000000098
 31
0.0
  0
LINE
  5
5445
330
A
100
AcDbEntity
  8
0
  6
Continuous
 62
     7
100
AcDbLine
 10
154.1749999999999
 20
5.443376000000072
 30
0.0
 11
155.4249999999999
 21
4.721688000000099
 31
0.0
  0
CIRCLE
  5
5446
330
A
100
AcDbEntity
  8
0
  6
Continuous
 62
     7
100
AcDbCircle
 10
154.1749999999999
 20
4.0000000000001
 30
0.0
 40
1.75
  0
LINE
  5
5447
330
A
100
AcDbEntity
  8
0
  6
Continuous
 62
     7
100
AcDbLine
 10
152.925
 20
3.278312000000098
 30
0.0
 11
152.925
 21
4.721688000000099
 31
0.0
  0
LINE
  5
5448
330
A
100
AcDbEntity
  8
0
  6
Continuous
 62
     7
100
AcDbLine
 10
121.5749999999999
 20
0.0201710000001043
 30
0.0
 11
121.5749999999999
 21
9.979829000000094
 31
0.0
  0
LINE
  5
5449
330
A
100
AcDbEntity
  8
0
  6
Continuous
 62
     7
100
AcDbLine
 10
121.5749999999999
 20
60.0201710000001
 30
0.0
 11
121.5749999999999
 21
69.97982900000009
 31
0.0
  0
LINE
  5
544A
330
A
100
AcDbEntity
  8
0
  6
Continuous
 62
     7
100
AcDbLine
 10
145.913877
 20
85.0000000000001
 30
0.0
 11
145.913877
 21
84.9710500000001
 31
0.0
  0
LINE
  5
544B
330
A
100
AcDbEntity
  8
0
  6
Continuous
 62
     7
100
AcDbLine
 10
145.913877
 20
85.0000000000001
 30
0.0
 11
146.675
 21
85.0000000000001
 31
0.0
  0
LINE
  5
544C
330
A
100
AcDbEntity
  8
0
  6
Continuous
 62
     9
100
AcDbLine
 10
146.675
 20
-14.9999999999999
 30
0.0
 11
146.675
 21
-13.9999999999999
 31
0.0
  0
LINE
  5
544D
330
A
100
AcDbEntity
  8
0
  6
Continuous
 62
     9
100
AcDbLine
 10
146.675
 20
84.00000000000011
 30
0.0
 11
146.675
 21
85.0000000000001
 31
0.0
  0
LINE
  5
544E
330
A
100
AcDbEntity
  8
0
  6
Continuous
 62
     7
100
AcDbLine
 10
145.913877
 20
-14.9999999999999
 30
0.0
 11
146.675
 21
-14.9999999999999
 31
0.0
  0
LINE
  5
544F
330
A
100
AcDbEntity
  8
0
  6
Continuous
 62
     7
100
AcDbLine
 10
145.913877
 20
-14.9999999999999
 30
0.0
 11
145.913877
 21
-14.97104999999989
 31
0.0
  0
LINE
  5
5450
330
A
100
AcDbEntity
  8
0
  6
Continuous
 62
     9
100
AcDbLine
 10
121.675
 20
-14.9999999999999
 30
0.0
 11
121.675
 21
-13.9999999999999
 31
0.0
  0
LINE
  5
5451
330
A
100
AcDbEntity
  8
0
  6
Continuous
 62
     9
100
AcDbLine
 10
121.675
 20
84.00000000000011
 30
0.0
 11
121.675
 21
85.0000000000001
 31
0.0
  0
LINE
  5
5452
330
A
100
AcDbEntity
  8
0
  6
Continuous
 62
     7
100
AcDbLine
 10
121.675
 20
85.0000000000001
 30
0.0
 11
122.436123
 21
85.0000000000001
 31
0.0
  0
LINE
  5
5453
330
A
100
AcDbEntity
  8
0
  6
Continuous
 62
     7
100
AcDbLine
 10
122.436123
 20
84.9710500000001
 30
0.0
 11
122.436123
 21
85.0000000000001
 31
0.0
  0
LINE
  5
5454
330
A
100
AcDbEntity
  8
0
  6
Continuous
 62
     7
100
AcDbLine
 10
122.436123
 20
-14.97104999999989
 30
0.0
 11
122.436123
 21
-14.9999999999999
 31
0.0
  0
LINE
  5
5455
330
A
100
AcDbEntity
  8
0
  6
Continuous
 62
     7
100
AcDbLine
 10
121.675
 20
-14.9999999999999
 30
0.0
 11
122.436123
 21
-14.9999999999999
 31
0.0
  0
LINE
  5
5456
330
A
100
AcDbEntity
  8
0
  6
Continuous
 62
     7
100
AcDbLine
 10
122.675
 20
-14.9999999999999
 30
0.0
 11
122.436123
 21
-14.9999999999999
 31
0.0
  0
LINE
  5
5457
330
A
100
AcDbEntity
  8
0
  6
Continuous
 62
     7
100
AcDbLine
 10
139.6749999999999
 20
-14.9999999999999
 30
0.0
 11
128.6749999999999
 21
-14.9999999999999
 31
0.0
  0
LINE
  5
5458
330
A
100
AcDbEntity
  8
0
  6
Continuous
 62
     7
100
AcDbLine
 10
145.913877
 20
-14.9999999999999
 30
0.0
 11
145.675
 21
-14.9999999999999
 31
0.0
  0
LINE
  5
5459
330
A
100
AcDbEntity
  8
0
  6
Continuous
 62
     7
100
AcDbLine
 10
145.675
 20
85.0000000000001
 30
0.0
 11
145.913877
 21
85.0000000000001
 31
0.0
  0
LINE
  5
545A
330
A
100
AcDbEntity
  8
0
  6
Continuous
 62
     7
100
AcDbLine
 10
128.6749999999999
 20
85.0000000000001
 30
0.0
 11
139.6749999999999
 21
85.0000000000001
 31
0.0
  0
LINE
  5
545B
330
A
100
AcDbEntity
  8
0
  6
Continuous
 62
     7
100
AcDbLine
 10
122.436123
 20
85.0000000000001
 30
0.0
 11
122.675
 21
85.0000000000001
 31
0.0
  0
CIRCLE
  5
545C
330
A
100
AcDbEntity
  8
0
  6
Continuous
 62
     7
100
AcDbCircle
 10
114.1749999999999
 20
-4.999999999999894
 30
0.0
 40
5.0
  0
CIRCLE
  5
545D
330
A
100
AcDbEntity
  8
0
  6
Continuous
 62
     7
100
AcDbCircle
 10
114.1749999999999
 20
4.0000000000001
 30
0.0
 40
2.1
  0
LINE
  5
545E
330
A
100
AcDbEntity
  8
0
  6
Continuous
 62
     7
100
AcDbLine
 10
106.675
 20
-14.9999999999999
 30
0.0
 11
106.675
 21
85.0000000000001
 31
0.0
  0
CIRCLE
  5
545F
330
A
100
AcDbEntity
  8
0
  6
Continuous
 62
     7
100
AcDbCircle
 10
114.1749999999999
 20
75.0000000000001
 30
0.0
 40
5.0
  0
CIRCLE
  5
5460
330
A
100
AcDbEntity
  8
0
  6
Continuous
 62
     7
100
AcDbCircle
 10
114.1749999999999
 20
66.00000000000007
 30
0.0
 40
2.1
  0
LINE
  5
5461
330
A
100
AcDbEntity
  8
0
  6
Continuous
 62
     7
100
AcDbLine
 10
121.675
 20
85.0000000000001
 30
0.0
 11
106.675
 21
85.0000000000001
 31
0.0
  0
LINE
  5
5462
330
A
100
AcDbEntity
  8
0
  6
Continuous
 62
     7
100
AcDbLine
 10
121.675
 20
-14.9999999999999
 30
0.0
 11
106.675
 21
-14.9999999999999
 31
0.0
  0
CIRCLE
  5
5463
330
A
100
AcDbEntity
  8
0
  6
Continuous
 62
     7
100
AcDbCircle
 10
154.1749999999999
 20
66.00000000000007
 30
0.0
 40
2.1
  0
CIRCLE
  5
5464
330
A
100
AcDbEntity
  8
0
  6
Continuous
 62
     7
100
AcDbCircle
 10
154.1749999999999
 20
4.0000000000001
 30
0.0
 40
2.1
  0
CIRCLE
  5
5465
330
A
100
AcDbEntity
  8
0
  6
Continuous
 62
     7
100
AcDbCircle
 10
154.1749999999999
 20
75.0000000000001
 30
0.0
 40
5.0
  0
LINE
  5
5466
330
A
100
AcDbEntity
  8
0
  6
Continuous
 62
     7
100
AcDbLine
 10
161.6749999999999
 20
-14.9999999999999
 30
0.0
 11
161.6749999999999
 21
85.0000000000001
 31
0.0
  0
CIRCLE
  5
5467
330
A
100
AcDbEntity
  8
0
  6
Continuous
 62
     7
100
AcDbCircle
 10
154.1749999999999
 20
-4.999999999999894
 30
0.0
 40
5.0
  0
LINE
  5
5468
330
A
100
AcDbEntity
  8
0
  6
Continuous
 62
     7
100
AcDbLine
 10
161.6749999999999
 20
85.0000000000001
 30
0.0
 11
146.675
 21
85.0000000000001
 31
0.0
  0
LINE
  5
5469
330
A
100
AcDbEntity
  8
0
  6
Continuous
 62
     7
100
AcDbLine
 10
161.6749999999999
 20
-14.9999999999999
 30
0.0
 11
146.675
 21
-14.9999999999999
 31
0.0
  0
CIRCLE
  5
546A
330
A
100
AcDbEntity
  8
0
  6
Continuous
 62
     7
100
AcDbCircle
 10
114.1749999999999
 20
75.0000000000001
 30
0.0
 40
2.649999999999999
  0
CIRCLE
  5
546B
330
A
100
AcDbEntity
  8
0
  6
Continuous
 62
     7
100
AcDbCircle
 10
154.1749999999999
 20
75.0000000000001
 30
0.0
 40
2.649999999999999
  0
CIRCLE
  5
546C
330
A
100
AcDbEntity
  8
0
  6
Continuous
 62
     7
100
AcDbCircle
 10
154.1749999999999
 20
-4.999999999999894
 30
0.0
 40
2.649999999999999
  0
CIRCLE
  5
546D
330
A
100
AcDbEntity
  8
0
  6
Continuous
 62
     7
100
AcDbCircle
 10
114.1749999999999
 20
-4.999999999999894
 30
0.0
 40
2.649999999999999
  0
LINE
  5
546E
330
A
100
AcDbEntity
  8
0
  6
Continuous
 62
     9
100
AcDbLine
 10
130.175
 20
1.0000000000001
 30
0.0
 11
138.1749999999999
 21
1.0000000000001
 31
0.0
  0
LINE
  5
546F
330
A
100
AcDbEntity
  8
0
  6
Continuous
 62
     9
100
AcDbLine
 10
130.175
 20
69.0000000000001
 30
0.0
 11
138.1749999999999
 21
69.0000000000001
 31
0.0
  0
LINE
  5
5470
330
A
100
AcDbEntity
  8
0
  6
Continuous
 62
     7
100
AcDbLine
 10
130.175
 20
-5.999999999999895
 30
0.0
 11
138.1749999999999
 21
-5.999999999999895
 31
0.0
  0
LINE
  5
5471
330
A
100
AcDbEntity
  8
0
  6
Continuous
 62
     7
100
AcDbLine
 10
130.175
 20
76.0000000000001
 30
0.0
 11
138.1749999999999
 21
76.0000000000001
 31
0.0
  0
LINE
  5
5472
330
A
100
AcDbEntity
  8
0
  6
Continuous
 62
     7
100
AcDbLine
 10
139.6749999999999
 20
80.50000000000009
 30
0.0
 11
139.6749999999999
 21
85.0000000000001
 31
0.0
  0
LINE
  5
5473
330
A
100
AcDbEntity
  8
0
  6
Continuous
 62
     7
100
AcDbLine
 10
139.6749999999999
 20
85.0000000000001
 30
0.0
 11
145.675
 21
85.0000000000001
 31
0.0
  0
LINE
  5
5474
330
A
100
AcDbEntity
  8
0
  6
Continuous
 62
     9
100
AcDbLine
 10
145.675
 20
80.50000000000009
 30
0.0
 11
145.675
 21
85.0000000000001
 31
0.0
  0
LINE
  5
5475
330
A
100
AcDbEntity
  8
0
  6
Continuous
 62
     9
100
AcDbLine
 10
145.675
 20
80.50000000000009
 30
0.0
 11
139.6749999999999
 21
80.50000000000009
 31
0.0
  0
LINE
  5
5476
330
A
100
AcDbEntity
  8
0
  6
Continuous
 62
     7
100
AcDbLine
 10
146.675
 20
80.50000000000009
 30
0.0
 11
146.675
 21
-10.4999999999999
 31
0.0
  0
LINE
  5
5477
330
A
100
AcDbEntity
  8
0
  6
Continuous
 62
     9
100
AcDbLine
 10
145.675
 20
-10.4999999999999
 30
0.0
 11
146.675
 21
-10.4999999999999
 31
0.0
  0
LINE
  5
5478
330
A
100
AcDbEntity
  8
0
  6
Continuous
 62
     9
100
AcDbLine
 10
145.675
 20
-10.4999999999999
 30
0.0
 11
145.675
 21
80.50000000000009
 31
0.0
  0
LINE
  5
5479
330
A
100
AcDbEntity
  8
0
  6
Continuous
 62
     9
100
AcDbLine
 10
146.675
 20
80.50000000000009
 30
0.0
 11
145.675
 21
80.50000000000009
 31
0.0
  0
LINE
  5
547A
330
A
100
AcDbEntity
  8
0
  6
Continuous
 62
     7
100
AcDbLine
 10
139.6749999999999
 20
-14.9999999999999
 30
0.0
 11
139.6749999999999
 21
-10.4999999999999
 31
0.0
  0
LINE
  5
547B
330
A
100
AcDbEntity
  8
0
  6
Continuous
 62
     9
100
AcDbLine
 10
139.6749999999999
 20
-10.4999999999999
 30
0.0
 11
145.675
 21
-10.4999999999999
 31
0.0
  0
LINE
  5
547C
330
A
100
AcDbEntity
  8
0
  6
Continuous
 62
     9
100
AcDbLine
 10
145.675
 20
-14.9999999999999
 30
0.0
 11
145.675
 21
-10.4999999999999
 31
0.0
  0
LINE
  5
547D
330
A
100
AcDbEntity
  8
0
  6
Continuous
 62
     7
100
AcDbLine
 10
145.675
 20
-14.9999999999999
 30
0.0
 11
139.6749999999999
 21
-14.9999999999999
 31
0.0
  0
LINE
  5
547E
330
A
100
AcDbEntity
  8
0
  6
Continuous
 62
     7
100
AcDbLine
 10
139.6749999999999
 20
-10.4999999999999
 30
0.0
 11
139.6749999999999
 21
80.50000000000009
 31
0.0
  0
LINE
  5
547F
330
A
100
AcDbEntity
  8
0
  6
Continuous
 62
     7
100
AcDbLine
 10
146.675
 20
84.00000000000011
 30
0.0
 11
146.675
 21
80.50000000000009
 31
0.0
  0
ARC
  5
5480
330
A
100
AcDbEntity
  8
0
  6
Continuous
 62
     7
100
AcDbCircle
 10
145.675
 20
84.00000000000011
 30
0.0
 40
1.0
100
AcDbArc
 50
0.0
 51
90.0
  0
LINE
  5
5481
330
A
100
AcDbEntity
  8
0
  6
Continuous
 62
     7
100
AcDbLine
 10
146.675
 20
-10.4999999999999
 30
0.0
 11
146.675
 21
-13.9999999999999
 31
0.0
  0
ARC
  5
5482
330
A
100
AcDbEntity
  8
0
  6
Continuous
 62
     7
100
AcDbCircle
 10
145.675
 20
-13.9999999999999
 30
0.0
 40
1.0
100
AcDbArc
 50
270.0
 51
0.0
  0
LINE
  5
5483
330
A
100
AcDbEntity
  8
0
  6
Continuous
 62
     9
100
AcDbLine
 10
116.683477
 20
41.00000000000011
 30
0.0
 11
116.683477
 21
29.00000000000011
 31
0.0
  0
LINE
  5
5484
330
A
100
AcDbEntity
  8
0
  6
Continuous
 62
     7
100
AcDbLine
 10
116.683477
 20
41.00000000000011
 30
0.0
 11
121.675
 21
41.00000000000011
 31
0.0
  0
LINE
  5
5485
330
A
100
AcDbEntity
  8
0
  6
Continuous
 62
     7
100
AcDbLine
 10
116.683477
 20
29.00000000000011
 30
0.0
 11
121.675
 21
29.00000000000011
 31
0.0
  0
LINE
  5
5486
330
A
100
AcDbEntity
  8
0
  6
Continuous
 62
     9
100
AcDbLine
 10
151.6665229999999
 20
29.00000000000011
 30
0.0
 11
151.6665229999999
 21
41.00000000000011
 31
0.0
  0
LINE
  5
5487
330
A
100
AcDbEntity
  8
0
  6
Continuous
 62
     7
100
AcDbLine
 10
146.675
 20
41.00000000000011
 30
0.0
 11
151.6665229999999
 21
41.00000000000011
 31
0.0
  0
LINE
  5
5488
330
A
100
AcDbEntity
  8
0
  6
Continuous
 62
     7
100
AcDbLine
 10
146.675
 20
29.00000000000011
 30
0.0
 11
151.6665229999999
 21
29.00000000000011
 31
0.0
  0
LINE
  5
5489
330
A
100
AcDbEntity
  8
0
  6
Continuous
 62
     7
100
AcDbLine
 10
116.5641869999999
 20
41.00000000000011
 30
0.0
 11
116.683477
 21
41.00000000000011
 31
0.0
  0
LINE
  5
548A
330
A
100
AcDbEntity
  8
0
  6
Continuous
 62
     7
100
AcDbLine
 10
116.683477
 20
29.00000000000011
 30
0.0
 11
116.5641869999999
 21
29.00000000000011
 31
0.0
  0
LINE
  5
548B
330
A
100
AcDbEntity
  8
0
  6
Continuous
 62
     7
100
AcDbLine
 10
151.785813
 20
29.00000000000011
 30
0.0
 11
151.6665229999999
 21
29.00000000000011
 31
0.0
  0
LINE
  5
548C
330
A
100
AcDbEntity
  8
0
  6
Continuous
 62
     7
100
AcDbLine
 10
151.6665229999999
 20
41.00000000000011
 30
0.0
 11
151.785813
 21
41.00000000000011
 31
0.0
  0
LINE
  5
548D
330
A
100
AcDbEntity
  8
0
  6
Continuous
 62
     7
100
AcDbLine
 10
116.4721909999999
 20
41.00000000000011
 30
0.0
 11
116.5707639999999
 21
41.00000000000011
 31
0.0
  0
LINE
  5
548E
330
A
100
AcDbEntity
  8
0
  6
Continuous
 62
     7
100
AcDbLine
 10
116.5707639999999
 20
29.00000000000011
 30
0.0
 11
116.47219
 21
29.00000000000011
 31
0.0
  0
LINE
  5
548F
330
A
100
AcDbEntity
  8
0
  6
Continuous
 62
     7
100
AcDbLine
 10
151.8778089999999
 20
29.00000000000011
 30
0.0
 11
151.779236
 21
29.00000000000011
 31
0.0
  0
LINE
  5
5490
330
A
100
AcDbEntity
  8
0
  6
Continuous
 62
     7
100
AcDbLine
 10
151.779236
 20
41.00000000000011
 30
0.0
 11
151.8778099999999
 21
41.00000000000011
 31
0.0
  0
ARC
  5
5491
330
A
100
AcDbEntity
  8
0
  6
Continuous
 62
     7
100
AcDbCircle
 10
122.0749999999999
 20
0.0201710000001043
 30
0.0
 40
0.5
100
AcDbArc
 50
180.0
 51
216.8698979999996
  0
ARC
  5
5492
330
A
100
AcDbEntity
  8
0
  6
Continuous
 62
     7
100
AcDbCircle
 10
122.0749999999999
 20
9.979829000000094
 30
0.0
 40
0.5
100
AcDbArc
 50
143.1301020000003
 51
180.0
  0
ARC
  5
5493
330
A
100
AcDbEntity
  8
0
  6
Continuous
 62
     7
100
AcDbCircle
 10
122.0749999999999
 20
60.0201710000001
 30
0.0
 40
0.5
100
AcDbArc
 50
180.0
 51
216.8698979999996
  0
ARC
  5
5494
330
A
100
AcDbEntity
  8
0
  6
Continuous
 62
     7
100
AcDbCircle
 10
122.0749999999999
 20
69.97982900000009
 30
0.0
 40
0.5
100
AcDbArc
 50
143.1301020000003
 51
180.0
  0
LINE
  5
5495
330
A
100
AcDbEntity
  8
0
  6
Continuous
 62
     7
100
AcDbLine
 10
116.5641869999999
 20
41.00000000000011
 30
0.0
 11
116.5641869999999
 21
29.00000000000011
 31
0.0
  0
LINE
  5
5496
330
A
100
AcDbEntity
  8
0
  6
Continuous
 62
     7
100
AcDbLine
 10
151.785813
 20
29.00000000000011
 30
0.0
 11
151.785813
 21
41.00000000000011
 31
0.0
  0
LINE
  5
5497
330
A
100
AcDbEntity
  8
0
  6
Continuous
 62
     7
100
AcDbLine
 10
116.4721909999999
 20
41.00000000000011
 30
0.0
 11
116.47219
 21
29.00000000000011
 31
0.0
  0
LINE
  5
5498
330
A
100
AcDbEntity
  8
0
  6
Continuous
 62
     7
100
AcDbLine
 10
151.8778089999999
 20
29.00000000000011
 30
0.0
 11
151.8778099999999
 21
41.00000000000011
 31
0.0
  0
LINE
  5
5499
330
A
100
AcDbEntity
  8
0
  6
Continuous
 62
     7
100
AcDbLine
 10
62.85000000000003
 20
134.5000000000001
 30
0.0
 11
62.85000000000003
 21
131.5000000000001
 31
0.0
  0
LINE
  5
549A
330
A
100
AcDbEntity
  8
0
  6
Continuous
 62
     9
100
AcDbLine
 10
62.85000000000003
 20
131.5000000000001
 30
0.0
 11
61.85000000000003
 21
131.5000000000001
 31
0.0
  0
LINE
  5
549B
330
A
100
AcDbEntity
  8
0
  6
Continuous
 62
     9
100
AcDbLine
 10
61.85000000000003
 20
131.5000000000001
 30
0.0
 11
61.85000000000003
 21
134.5000000000001
 31
0.0
  0
LINE
  5
549C
330
A
100
AcDbEntity
  8
0
  6
Continuous
 62
     7
100
AcDbLine
 10
61.85000000000003
 20
134.5000000000001
 30
0.0
 11
62.85000000000003
 21
134.5000000000001
 31
0.0
  0
LINE
  5
549D
330
A
100
AcDbEntity
  8
0
  6
Continuous
 62
     9
100
AcDbLine
 10
-12.64999999999997
 20
128.5000000000001
 30
0.0
 11
58.85000000000003
 21
128.5000000000001
 31
0.0
  0
LINE
  5
549E
330
A
100
AcDbEntity
  8
0
  6
Continuous
 62
     9
100
AcDbLine
 10
-12.64999999999997
 20
134.5000000000001
 30
0.0
 11
-12.64999999999997
 21
128.5000000000001
 31
0.0
  0
ARC
  5
549F
330
A
100
AcDbEntity
  8
0
  6
Continuous
 62
     9
100
AcDbCircle
 10
58.85000000000003
 20
131.5000000000001
 30
0.0
 40
3.0
100
AcDbArc
 50
270.0
 51
0.0
  0
LINE
  5
54A0
330
A
100
AcDbEntity
  8
0
  6
Continuous
 62
     7
100
AcDbLine
 10
61.85000000000003
 20
134.5000000000001
 30
0.0
 11
-12.64999999999997
 21
134.5000000000001
 31
0.0
  0
LINE
  5
54A1
330
A
100
AcDbEntity
  8
0
  6
Continuous
 62
     9
100
AcDbLine
 10
-17.14999999999997
 20
128.5000000000001
 30
0.0
 11
-12.64999999999997
 21
128.5000000000001
 31
0.0
  0
LINE
  5
54A2
330
A
100
AcDbEntity
  8
0
  6
Continuous
 62
     7
100
AcDbLine
 10
-17.14999999999997
 20
128.5000000000001
 30
0.0
 11
-17.14999999999997
 21
134.5000000000001
 31
0.0
  0
LINE
  5
54A3
330
A
100
AcDbEntity
  8
0
  6
Continuous
 62
     7
100
AcDbLine
 10
-17.14999999999997
 20
134.5000000000001
 30
0.0
 11
-12.64999999999997
 21
134.5000000000001
 31
0.0
  0
ARC
  5
54A4
330
A
100
AcDbEntity
  8
0
  6
Continuous
 62
     7
100
AcDbCircle
 10
58.85000000000003
 20
131.5000000000001
 30
0.0
 40
4.0
100
AcDbArc
 50
270.0
 51
0.0
  0
LINE
  5
54A5
330
A
100
AcDbEntity
  8
0
  6
Continuous
 62
     9
100
AcDbLine
 10
58.85000000000003
 20
127.5000000000001
 30
0.0
 11
58.85000000000003
 21
128.5000000000001
 31
0.0
  0
LINE
  5
54A6
330
A
100
AcDbEntity
  8
0
  6
Continuous
 62
     7
100
AcDbLine
 10
58.85000000000003
 20
127.5000000000001
 30
0.0
 11
-12.64999999999997
 21
127.5000000000001
 31
0.0
  0
LINE
  5
54A7
330
A
100
AcDbEntity
  8
0
  6
Continuous
 62
     9
100
AcDbLine
 10
-12.64999999999997
 20
127.5000000000001
 30
0.0
 11
-12.64999999999997
 21
128.5000000000001
 31
0.0
  0
LINE
  5
54A8
330
A
100
AcDbEntity
  8
0
  6
Continuous
 62
     7
100
AcDbLine
 10
-12.64999999999997
 20
127.5000000000001
 30
0.0
 11
-16.14999999999997
 21
127.5000000000001
 31
0.0
  0
ARC
  5
54A9
330
A
100
AcDbEntity
  8
0
  6
Continuous
 62
     7
100
AcDbCircle
 10
-16.14999999999997
 20
128.5000000000001
 30
0.0
 40
1.0
100
AcDbArc
 50
180.0
 51
270.0
  0
LINE
  5
54AA
330
A
100
AcDbEntity
  8
0
  6
Continuous
 62
     9
100
AcDbLine
 10
55.0
 20
136.0000000000001
 30
0.0
 11
55.0
 21
135.0000000000001
 31
0.0
  0
LINE
  5
54AB
330
A
100
AcDbEntity
  8
0
  6
Continuous
 62
     9
100
AcDbLine
 10
55.0
 20
135.0000000000001
 30
0.0
 11
55.0
 21
134.5000000000001
 31
0.0
  0
LINE
  5
54AC
330
A
100
AcDbEntity
  8
0
  6
Continuous
 62
     7
100
AcDbLine
 10
60.5
 20
136.0000000000001
 30
0.0
 11
60.5
 21
135.0000000000001
 31
0.0
  0
LINE
  5
54AD
330
A
100
AcDbEntity
  8
0
  6
Continuous
 62
     7
100
AcDbLine
 10
60.5
 20
135.0000000000001
 30
0.0
 11
60.5
 21
134.5000000000001
 31
0.0
  0
LINE
  5
54AE
330
A
100
AcDbEntity
  8
0
  6
Continuous
 62
     7
100
AcDbLine
 10
60.5
 20
136.0000000000001
 30
0.0
 11
55.0
 21
136.0000000000001
 31
0.0
  0
LINE
  5
54AF
330
A
100
AcDbEntity
  8
0
  6
Continuous
 62
     9
100
AcDbLine
 10
-9.499999999999984
 20
136.0000000000001
 30
0.0
 11
-9.499999999999984
 21
135.0000000000001
 31
0.0
  0
LINE
  5
54B0
330
A
100
AcDbEntity
  8
0
  6
Continuous
 62
     9
100
AcDbLine
 10
-9.499999999999984
 20
135.0000000000001
 30
0.0
 11
-9.499999999999984
 21
134.5000000000001
 31
0.0
  0
LINE
  5
54B1
330
A
100
AcDbEntity
  8
0
  6
Continuous
 62
     7
100
AcDbLine
 10
55.0
 20
136.0000000000001
 30
0.0
 11
-9.499999999999984
 21
136.0000000000001
 31
0.0
  0
LINE
  5
54B2
330
A
100
AcDbEntity
  8
0
  6
Continuous
 62
     7
100
AcDbLine
 10
-15.49999999999997
 20
136.0000000000001
 30
0.0
 11
-15.49999999999997
 21
135.0000000000001
 31
0.0
  0
LINE
  5
54B3
330
A
100
AcDbEntity
  8
0
  6
Continuous
 62
     7
100
AcDbLine
 10
-15.49999999999997
 20
135.0000000000001
 30
0.0
 11
-15.49999999999997
 21
134.5000000000001
 31
0.0
  0
LINE
  5
54B4
330
A
100
AcDbEntity
  8
0
  6
Continuous
 62
     7
100
AcDbLine
 10
-9.499999999999984
 20
136.0000000000001
 30
0.0
 11
-15.49999999999997
 21
136.0000000000001
 31
0.0
  0
LINE
  5
54B5
330
A
100
AcDbEntity
  8
0
  6
Continuous
 62
     9
100
AcDbLine
 10
55.0
 20
145.5000000000001
 30
0.0
 11
55.0
 21
145.0000000000001
 31
0.0
  0
LINE
  5
54B6
330
A
100
AcDbEntity
  8
0
  6
Continuous
 62
     9
100
AcDbLine
 10
55.0
 20
145.0000000000001
 30
0.0
 11
55.0
 21
144.0000000000001
 31
0.0
  0
LINE
  5
54B7
330
A
100
AcDbEntity
  8
0
  6
Continuous
 62
     7
100
AcDbLine
 10
60.5
 20
145.5000000000001
 30
0.0
 11
60.5
 21
145.0000000000001
 31
0.0
  0
LINE
  5
54B8
330
A
100
AcDbEntity
  8
0
  6
Continuous
 62
     7
100
AcDbLine
 10
60.5
 20
145.0000000000001
 30
0.0
 11
60.5
 21
144.0000000000001
 31
0.0
  0
LINE
  5
54B9
330
A
100
AcDbEntity
  8
0
  6
Continuous
 62
     7
100
AcDbLine
 10
60.5
 20
144.0000000000001
 30
0.0
 11
55.0
 21
144.0000000000001
 31
0.0
  0
LINE
  5
54BA
330
A
100
AcDbEntity
  8
0
  6
Continuous
 62
     9
100
AcDbLine
 10
-9.499999999999984
 20
145.5000000000001
 30
0.0
 11
-9.499999999999984
 21
145.0000000000001
 31
0.0
  0
LINE
  5
54BB
330
A
100
AcDbEntity
  8
0
  6
Continuous
 62
     9
100
AcDbLine
 10
-9.499999999999984
 20
145.0000000000001
 30
0.0
 11
-9.499999999999984
 21
144.0000000000001
 31
0.0
  0
LINE
  5
54BC
330
A
100
AcDbEntity
  8
0
  6
Continuous
 62
     7
100
AcDbLine
 10
55.0
 20
144.0000000000001
 30
0.0
 11
-9.499999999999984
 21
144.0000000000001
 31
0.0
  0
LINE
  5
54BD
330
A
100
AcDbEntity
  8
0
  6
Continuous
 62
     7
100
AcDbLine
 10
-15.49999999999997
 20
145.5000000000001
 30
0.0
 11
-15.49999999999997
 21
145.0000000000001
 31
0.0
  0
LINE
  5
54BE
330
A
100
AcDbEntity
  8
0
  6
Continuous
 62
     7
100
AcDbLine
 10
-15.49999999999997
 20
145.0000000000001
 30
0.0
 11
-15.49999999999997
 21
144.0000000000001
 31
0.0
  0
LINE
  5
54BF
330
A
100
AcDbEntity
  8
0
  6
Continuous
 62
     7
100
AcDbLine
 10
-9.499999999999984
 20
144.0000000000001
 30
0.0
 11
-15.49999999999997
 21
144.0000000000001
 31
0.0
  0
LINE
  5
54C0
330
A
100
AcDbEntity
  8
0
  6
Continuous
 62
     9
100
AcDbLine
 10
55.0
 20
135.0000000000001
 30
0.0
 11
55.0
 21
134.5000000000001
 31
0.0
  0
LINE
  5
54C1
330
A
100
AcDbEntity
  8
0
  6
Continuous
 62
     7
100
AcDbLine
 10
60.5
 20
135.0000000000001
 30
0.0
 11
60.5
 21
134.5000000000001
 31
0.0
  0
LINE
  5
54C2
330
A
100
AcDbEntity
  8
0
  6
Continuous
 62
     7
100
AcDbLine
 10
60.5
 20
135.0000000000001
 30
0.0
 11
55.0
 21
135.0000000000001
 31
0.0
  0
LINE
  5
54C3
330
A
100
AcDbEntity
  8
0
  6
Continuous
 62
     9
100
AcDbLine
 10
-9.499999999999984
 20
135.0000000000001
 30
0.0
 11
-9.499999999999984
 21
134.5000000000001
 31
0.0
  0
LINE
  5
54C4
330
A
100
AcDbEntity
  8
0
  6
Continuous
 62
     7
100
AcDbLine
 10
55.0
 20
135.0000000000001
 30
0.0
 11
-9.499999999999984
 21
135.0000000000001
 31
0.0
  0
LINE
  5
54C5
330
A
100
AcDbEntity
  8
0
  6
Continuous
 62
     7
100
AcDbLine
 10
-15.49999999999997
 20
135.0000000000001
 30
0.0
 11
-15.49999999999997
 21
134.5000000000001
 31
0.0
  0
LINE
  5
54C6
330
A
100
AcDbEntity
  8
0
  6
Continuous
 62
     7
100
AcDbLine
 10
-9.499999999999984
 20
135.0000000000001
 30
0.0
 11
-15.49999999999997
 21
135.0000000000001
 31
0.0
  0
LINE
  5
54C7
330
A
100
AcDbEntity
  8
0
  6
Continuous
 62
     9
100
AcDbLine
 10
55.0
 20
145.5000000000001
 30
0.0
 11
55.0
 21
145.0000000000001
 31
0.0
  0
LINE
  5
54C8
330
A
100
AcDbEntity
  8
0
  6
Continuous
 62
     7
100
AcDbLine
 10
60.5
 20
145.5000000000001
 30
0.0
 11
60.5
 21
145.0000000000001
 31
0.0
  0
LINE
  5
54C9
330
A
100
AcDbEntity
  8
0
  6
Continuous
 62
     7
100
AcDbLine
 10
60.5
 20
145.0000000000001
 30
0.0
 11
55.0
 21
145.0000000000001
 31
0.0
  0
LINE
  5
54CA
330
A
100
AcDbEntity
  8
0
  6
Continuous
 62
     9
100
AcDbLine
 10
-9.499999999999984
 20
145.5000000000001
 30
0.0
 11
-9.499999999999984
 21
145.0000000000001
 31
0.0
  0
LINE
  5
54CB
330
A
100
AcDbEntity
  8
0
  6
Continuous
 62
     7
100
AcDbLine
 10
55.0
 20
145.0000000000001
 30
0.0
 11
-9.499999999999984
 21
145.0000000000001
 31
0.0
  0
LINE
  5
54CC
330
A
100
AcDbEntity
  8
0
  6
Continuous
 62
     7
100
AcDbLine
 10
-15.49999999999997
 20
145.5000000000001
 30
0.0
 11
-15.49999999999997
 21
145.0000000000001
 31
0.0
  0
LINE
  5
54CD
330
A
100
AcDbEntity
  8
0
  6
Continuous
 62
     7
100
AcDbLine
 10
-9.499999999999984
 20
145.0000000000001
 30
0.0
 11
-15.49999999999997
 21
145.0000000000001
 31
0.0
  0
LINE
  5
54CE
330
A
100
AcDbEntity
  8
0
  6
Continuous
 62
     7
100
AcDbLine
 10
27.82982900000003
 20
127.4
 30
0.0
 11
17.87017100000001
 21
127.4
 31
0.0
  0
LINE
  5
54CF
330
A
100
AcDbEntity
  8
0
  6
Continuous
 62
     7
100
AcDbLine
 10
65.50000000000001
 20
167.5000000000001
 30
0.0
 11
65.50000000000001
 21
152.5000000000001
 31
0.0
  0
LINE
  5
54D0
330
A
100
AcDbEntity
  8
0
  6
Continuous
 62
     7
100
AcDbLine
 10
70.50000000000001
 20
167.5000000000001
 30
0.0
 11
65.50000000000001
 21
167.5000000000001
 31
0.0
  0
LINE
  5
54D1
330
A
100
AcDbEntity
  8
0
  6
Continuous
 62
     7
100
AcDbLine
 10
70.50000000000001
 20
150.0000000000001
 30
0.0
 11
70.50000000000001
 21
167.5000000000001
 31
0.0
  0
LINE
  5
54D2
330
A
100
AcDbEntity
  8
0
  6
Continuous
 62
     7
100
AcDbLine
 10
70.00000000000001
 20
149.5000000000001
 30
0.0
 11
70.50000000000001
 21
150.0000000000001
 31
0.0
  0
LINE
  5
54D3
330
A
100
AcDbEntity
  8
0
  6
Continuous
 62
     7
100
AcDbLine
 10
70.00000000000001
 20
130.5000000000001
 30
0.0
 11
70.00000000000001
 21
149.5000000000001
 31
0.0
  0
LINE
  5
54D4
330
A
100
AcDbEntity
  8
0
  6
Continuous
 62
     7
100
AcDbLine
 10
70.50000000000001
 20
130.0000000000001
 30
0.0
 11
70.00000000000001
 21
130.5000000000001
 31
0.0
  0
LINE
  5
54D5
330
A
100
AcDbEntity
  8
0
  6
Continuous
 62
     7
100
AcDbLine
 10
70.50000000000001
 20
112.5000000000001
 30
0.0
 11
70.50000000000001
 21
130.0000000000001
 31
0.0
  0
LINE
  5
54D6
330
A
100
AcDbEntity
  8
0
  6
Continuous
 62
     7
100
AcDbLine
 10
65.50000000000001
 20
112.5000000000001
 30
0.0
 11
70.50000000000001
 21
112.5000000000001
 31
0.0
  0
LINE
  5
54D7
330
A
100
AcDbEntity
  8
0
  6
Continuous
 62
     7
100
AcDbLine
 10
65.50000000000001
 20
127.5000000000001
 30
0.0
 11
65.50000000000001
 21
112.5000000000001
 31
0.0
  0
ARC
  5
54D8
330
A
100
AcDbEntity
  8
0
  6
Continuous
 62
     7
100
AcDbCircle
 10
64.00000000000002
 20
127.5000000000001
 30
0.0
 40
1.5
100
AcDbArc
 50
0.0
 51
30.49180600000035
  0
ARC
  5
54D9
330
A
100
AcDbEntity
  8
0
  6
Continuous
 62
     7
100
AcDbCircle
 10
49.10000000000003
 20
140.0000000000001
 30
0.0
 40
20.0
100
AcDbArc
 50
324.0595660000009
 51
35.94043399999917
  0
ARC
  5
54DA
330
A
100
AcDbEntity
  8
0
  6
Continuous
 62
     7
100
AcDbCircle
 10
64.00000000000002
 20
152.5000000000001
 30
0.0
 40
1.5
100
AcDbArc
 50
329.5081939999997
 51
0.0
  0
ARC
  5
54DB
330
A
100
AcDbEntity
  8
0
  6
Continuous
 62
     9
100
AcDbCircle
 10
49.10000000000003
 20
140.0000000000001
 30
0.0
 40
19.0
100
AcDbArc
 50
324.2727539999998
 51
35.72724600000022
  0
ARC
  5
54DC
330
A
100
AcDbEntity
  8
0
  6
Continuous
 62
     7
100
AcDbCircle
 10
64.00000000000002
 20
127.5000000000001
 30
0.0
 40
1.5
100
AcDbArc
 50
30.49180600000035
 51
69.54069699999973
  0
ARC
  5
54DD
330
A
100
AcDbEntity
  8
0
  6
Continuous
 62
     7
100
AcDbCircle
 10
63.99997900000003
 20
152.5000260000001
 30
0.0
 40
1.500030999999999
100
AcDbArc
 50
290.4597300000004
 51
329.5077670000003
  0
LINE
  5
54DE
330
A
100
AcDbEntity
  8
0
  6
Continuous
 62
     7
100
AcDbLine
 10
61.972499
 20
129.0000000000001
 30
0.0
 11
64.00000000000002
 21
129.0000000000001
 31
0.0
  0
LINE
  5
54DF
330
A
100
AcDbEntity
  8
0
  6
Continuous
 62
     7
100
AcDbLine
 10
64.00000000000002
 20
151.0000000000001
 30
0.0
 11
62.12249900000002
 21
151.0000000000001
 31
0.0
  0
ARC
  5
54E0
330
A
100
AcDbEntity
  8
0
  6
Continuous
 62
     7
100
AcDbCircle
 10
64.00000000000002
 20
127.5000000000001
 30
0.0
 40
1.5
100
AcDbArc
 50
69.54069699999973
 51
90.0
  0
ARC
  5
54E1
330
A
100
AcDbEntity
  8
0
  6
Continuous
 62
     7
100
AcDbCircle
 10
64.00000000000002
 20
152.5000000000001
 30
0.0
 40
1.5
100
AcDbArc
 50
270.0
 51
290.4593030000001
  0
ARC
  5
54E2
330
A
100
AcDbEntity
  8
0
  6
Continuous
 62
     7
100
AcDbCircle
 10
51.80365700000002
 20
143.355738
 30
0.0
 40
0.1
100
AcDbArc
 50
206.7426590000006
 51
276.7426590000006
  0
LINE
  5
54E3
330
A
100
AcDbEntity
  8
0
  6
Continuous
 62
     7
100
AcDbLine
 10
51.81539800000003
 20
143.2564290000001
 30
0.0
 11
51.85201400000002
 21
143.2607580000001
 31
0.0
  0
ARC
  5
54E4
330
A
100
AcDbEntity
  8
0
  6
Continuous
 62
     7
100
AcDbCircle
 10
50.0
 20
140.0000000000001
 30
0.0
 40
3.75
100
AcDbArc
 50
43.08060299999936
 51
60.40471500000062
  0
LINE
  5
54E5
330
A
100
AcDbEntity
  8
0
  6
Continuous
 62
     7
100
AcDbLine
 10
52.73897600000002
 20
142.5613500000001
 30
0.0
 11
52.74330500000003
 21
142.524734
 31
0.0
  0
ARC
  5
54E6
330
A
100
AcDbEntity
  8
0
  6
Continuous
 62
     7
100
AcDbCircle
 10
52.842613
 20
142.5364750000001
 30
0.0
 40
0.1
100
AcDbArc
 50
186.7426590000005
 51
256.742659
  0
LINE
  5
54E7
330
A
100
AcDbEntity
  8
0
  6
Continuous
 62
     7
100
AcDbLine
 10
52.81968100000002
 20
142.4391400000001
 30
0.0
 11
52.85556900000002
 21
142.430685
 31
0.0
  0
ARC
  5
54E8
330
A
100
AcDbEntity
  8
0
  6
Continuous
 62
     7
100
AcDbCircle
 10
50.0
 20
140.0000000000001
 30
0.0
 40
3.75
100
AcDbArc
 50
23.0806030000005
 51
40.40471499999944
  0
LINE
  5
54E9
330
A
100
AcDbEntity
  8
0
  6
Continuous
 62
     7
100
AcDbLine
 10
53.44982800000003
 20
141.4700960000001
 30
0.0
 11
53.44137300000001
 21
141.4342080000001
 31
0.0
  0
ARC
  5
54EA
330
A
100
AcDbEntity
  8
0
  6
Continuous
 62
     7
100
AcDbCircle
 10
53.53870800000002
 20
141.4112760000001
 30
0.0
 40
0.1
100
AcDbArc
 50
166.7426589999999
 51
236.7426589999998
  0
LINE
  5
54EB
330
A
100
AcDbEntity
  8
0
  6
Continuous
 62
     7
100
AcDbLine
 10
53.483868
 20
141.327654
 30
0.0
 11
53.51470000000002
 21
141.3074340000001
 31
0.0
  0
ARC
  5
54EC
330
A
100
AcDbEntity
  8
0
  6
Continuous
 62
     7
100
AcDbCircle
 10
50.0
 20
140.0000000000001
 30
0.0
 40
3.75
100
AcDbArc
 50
3.080602999999748
 51
20.40471499999943
  0
LINE
  5
54ED
330
A
100
AcDbEntity
  8
0
  6
Continuous
 62
     7
100
AcDbLine
 10
53.74458100000001
 20
140.201528
 30
0.0
 11
53.72436100000003
 21
140.1706960000001
 31
0.0
  0
ARC
  5
54EE
330
A
100
AcDbEntity
  8
0
  6
Continuous
 62
     7
100
AcDbCircle
 10
53.80798300000002
 20
140.1158560000001
 30
0.0
 40
0.1
100
AcDbArc
 50
146.7426589999998
 51
216.7426589999991
  0
LINE
  5
54EF
330
A
100
AcDbEntity
  8
0
  6
Continuous
 62
     7
100
AcDbLine
 10
53.72785000000003
 20
140.0560340000001
 30
0.0
 11
53.74990600000002
 21
140.026488
 31
0.0
  0
ARC
  5
54F0
330
A
100
AcDbEntity
  8
0
  6
Continuous
 62
     7
100
AcDbCircle
 10
50.0
 20
140.0000000000001
 30
0.0
 40
3.75
100
AcDbArc
 50
343.0806029999993
 51
0.4047149999996972
  0
LINE
  5
54F1
330
A
100
AcDbEntity
  8
0
  6
Continuous
 62
     7
100
AcDbLine
 10
53.58768200000003
 20
138.9086520000001
 30
0.0
 11
53.55813600000002
 21
138.8865950000001
 31
0.0
  0
ARC
  5
54F2
330
A
100
AcDbEntity
  8
0
  6
Continuous
 62
     7
100
AcDbCircle
 10
53.61795800000002
 20
138.8064620000001
 30
0.0
 40
0.1
100
AcDbArc
 50
126.742658999999
 51
196.7426589999993
  0
LINE
  5
54F3
330
A
100
AcDbEntity
  8
0
  6
Continuous
 62
     7
100
AcDbLine
 10
53.52219800000002
 20
138.777655
 30
0.0
 11
53.53281900000003
 21
138.7423470000001
 31
0.0
  0
ARC
  5
54F4
330
A
100
AcDbEntity
  8
0
  6
Continuous
 62
     7
100
AcDbCircle
 10
50.0
 20
140.0000000000001
 30
0.0
 40
3.75
100
AcDbArc
 50
323.0806029999997
 51
340.4047150000005
  0
LINE
  5
54F5
330
A
100
AcDbEntity
  8
0
  6
Continuous
 62
     7
100
AcDbLine
 10
52.99805500000003
 20
137.7474090000001
 30
0.0
 11
52.96274700000003
 21
137.736788
 31
0.0
  0
ARC
  5
54F6
330
A
100
AcDbEntity
  8
0
  6
Continuous
 62
     7
100
AcDbCircle
 10
52.99155500000001
 20
137.6410270000001
 30
0.0
 40
0.1
100
AcDbArc
 50
106.7426589999993
 51
176.7426589999997
  0
LINE
  5
54F7
330
A
100
AcDbEntity
  8
0
  6
Continuous
 62
     7
100
AcDbLine
 10
52.89171600000002
 20
137.646709
 30
0.0
 11
52.88962100000001
 21
137.6098980000001
 31
0.0
  0
ARC
  5
54F8
330
A
100
AcDbEntity
  8
0
  6
Continuous
 62
     7
100
AcDbCircle
 10
50.0
 20
140.0000000000001
 30
0.0
 40
3.75
100
AcDbArc
 50
303.0806029999997
 51
320.4047150000008
  0
LINE
  5
54F9
330
A
100
AcDbEntity
  8
0
  6
Continuous
 62
     7
100
AcDbLine
 10
52.046819
 20
136.8578620000001
 30
0.0
 11
52.01000800000003
 21
136.8599570000001
 31
0.0
  0
ARC
  5
54FA
330
A
100
AcDbEntity
  8
0
  6
Continuous
 62
     7
100
AcDbCircle
 10
52.00432600000002
 20
136.7601180000001
 30
0.0
 40
0.1
100
AcDbArc
 50
86.74265899999964
 51
156.7426589999993
  0
LINE
  5
54FB
330
A
100
AcDbEntity
  8
0
  6
Continuous
 62
     7
100
AcDbLine
 10
51.912452
 20
136.799604
 30
0.0
 11
51.89789300000001
 21
136.7657299999999
 31
0.0
  0
ARC
  5
54FC
330
A
100
AcDbEntity
  8
0
  6
Continuous
 62
     7
100
AcDbCircle
 10
50.0
 20
140.0000000000001
 30
0.0
 40
3.75
100
AcDbArc
 50
283.0806030000005
 51
300.404715
  0
LINE
  5
54FD
330
A
100
AcDbEntity
  8
0
  6
Continuous
 62
     7
100
AcDbLine
 10
50.84870600000003
 20
136.3473029999999
 30
0.0
 11
50.81483100000005
 21
136.361861
 31
0.0
  0
ARC
  5
54FE
330
A
100
AcDbEntity
  8
0
  6
Continuous
 62
     7
100
AcDbCircle
 10
50.77534500000003
 20
136.2699870000001
 30
0.0
 40
0.1
100
AcDbArc
 50
66.74265899999936
 51
136.7426590000009
  0
LINE
  5
54FF
330
A
100
AcDbEntity
  8
0
  6
Continuous
 62
     7
100
AcDbLine
 10
50.702517
 20
136.338515
 30
0.0
 11
50.67725000000002
 21
136.3116630000001
 31
0.0
  0
ARC
  5
5500
330
A
100
AcDbEntity
  8
0
  6
Continuous
 62
     7
100
AcDbCircle
 10
50.0
 20
140.0000000000001
 30
0.0
 40
3.75
100
AcDbArc
 50
263.0806029999998
 51
280.4047150000002
  0
LINE
  5
5501
330
A
100
AcDbEntity
  8
0
  6
Continuous
 62
     7
100
AcDbLine
 10
49.54822700000002
 20
136.2773130000001
 30
0.0
 11
49.52137400000001
 21
136.302579
 31
0.0
  0
ARC
  5
5502
330
A
100
AcDbEntity
  8
0
  6
Continuous
 62
     7
100
AcDbCircle
 10
49.45284700000001
 20
136.229751
 30
0.0
 40
0.1
100
AcDbArc
 50
46.74265900000095
 51
116.7426590000006
  0
LINE
  5
5503
330
A
100
AcDbEntity
  8
0
  6
Continuous
 62
     7
100
AcDbLine
 10
49.40784800000002
 20
136.3190550000001
 30
0.0
 11
49.37492099999995
 21
136.302463
 31
0.0
  0
ARC
  5
5504
330
A
100
AcDbEntity
  8
0
  6
Continuous
 62
     7
100
AcDbCircle
 10
50.0
 20
140.0000000000001
 30
0.0
 40
3.75
100
AcDbArc
 50
243.0806029999999
 51
260.4047150000007
  0
LINE
  5
5505
330
A
100
AcDbEntity
  8
0
  6
Continuous
 62
     7
100
AcDbLine
 10
48.30223800000001
 20
136.656334
 30
0.0
 11
48.28564700000002
 21
136.6892610000001
 31
0.0
  0
ARC
  5
5506
330
A
100
AcDbEntity
  8
0
  6
Continuous
 62
     7
100
AcDbCircle
 10
48.19634300000003
 20
136.6442620000001
 30
0.0
 40
0.1
100
AcDbArc
 50
26.74265900000059
 51
96.74265900000044
  0
LINE
  5
5507
330
A
100
AcDbEntity
  8
0
  6
Continuous
 62
     7
100
AcDbLine
 10
48.18460200000003
 20
136.743571
 30
0.0
 11
48.14798600000004
 21
136.7392420000001
 31
0.0
  0
ARC
  5
5508
330
A
100
AcDbEntity
  8
0
  6
Continuous
 62
     7
100
AcDbCircle
 10
50.0
 20
140.0000000000001
 30
0.0
 40
3.75
100
AcDbArc
 50
223.0806029999993
 51
240.4047150000006
  0
LINE
  5
5509
330
A
100
AcDbEntity
  8
0
  6
Continuous
 62
     7
100
AcDbLine
 10
47.26102400000002
 20
137.4386500000001
 30
0.0
 11
47.25669500000002
 21
137.4752660000001
 31
0.0
  0
ARC
  5
550A
330
A
100
AcDbEntity
  8
0
  6
Continuous
 62
     7
100
AcDbCircle
 10
47.15738700000003
 20
137.4635250000001
 30
0.0
 40
0.1
100
AcDbArc
 50
6.74265900000048
 51
76.74265899999991
  0
LINE
  5
550B
330
A
100
AcDbEntity
  8
0
  6
Continuous
 62
     7
100
AcDbLine
 10
47.18031900000002
 20
137.5608600000001
 30
0.0
 11
47.14443100000003
 21
137.5693150000001
 31
0.0
  0
ARC
  5
550C
330
A
100
AcDbEntity
  8
0
  6
Continuous
 62
     7
100
AcDbCircle
 10
50.0
 20
140.0000000000001
 30
0.0
 40
3.75
100
AcDbArc
 50
203.0806030000005
 51
220.4047149999995
  0
LINE
  5
550D
330
A
100
AcDbEntity
  8
0
  6
Continuous
 62
     7
100
AcDbLine
 10
46.55017200000002
 20
138.5299040000001
 30
0.0
 11
46.55862700000001
 21
138.5657920000001
 31
0.0
  0
ARC
  5
550E
330
A
100
AcDbEntity
  8
0
  6
Continuous
 62
     7
100
AcDbCircle
 10
46.46129200000003
 20
138.5887240000001
 30
0.0
 40
0.1
100
AcDbArc
 50
346.7426589999998
 51
56.74265899999978
  0
LINE
  5
550F
330
A
100
AcDbEntity
  8
0
  6
Continuous
 62
     7
100
AcDbLine
 10
46.51613200000004
 20
138.6723460000001
 30
0.0
 11
46.48530000000003
 21
138.6925660000001
 31
0.0
  0
ARC
  5
5510
330
A
100
AcDbEntity
  8
0
  6
Continuous
 62
     7
100
AcDbCircle
 10
50.0
 20
140.0000000000001
 30
0.0
 40
3.75
100
AcDbArc
 50
183.0806029999996
 51
200.4047149999995
  0
LINE
  5
5511
330
A
100
AcDbEntity
  8
0
  6
Continuous
 62
     7
100
AcDbLine
 10
46.25541900000003
 20
139.7984720000001
 30
0.0
 11
46.27563900000002
 21
139.829304
 31
0.0
  0
ARC
  5
5512
330
A
100
AcDbEntity
  8
0
  6
Continuous
 62
     7
100
AcDbCircle
 10
46.192017
 20
139.884144
 30
0.0
 40
0.1
100
AcDbArc
 50
326.7426589999999
 51
36.74265899999913
  0
LINE
  5
5513
330
A
100
AcDbEntity
  8
0
  6
Continuous
 62
     7
100
AcDbLine
 10
46.27215000000002
 20
139.9439660000001
 30
0.0
 11
46.25009400000002
 21
139.973512
 31
0.0
  0
ARC
  5
5514
330
A
100
AcDbEntity
  8
0
  6
Continuous
 62
     7
100
AcDbCircle
 10
50.0
 20
140.0000000000001
 30
0.0
 40
3.75
100
AcDbArc
 50
163.0806029999991
 51
180.4047149999997
  0
LINE
  5
5515
330
A
100
AcDbEntity
  8
0
  6
Continuous
 62
     7
100
AcDbLine
 10
46.412318
 20
141.0913480000001
 30
0.0
 11
46.44186400000001
 21
141.113405
 31
0.0
  0
ARC
  5
5516
330
A
100
AcDbEntity
  8
0
  6
Continuous
 62
     7
100
AcDbCircle
 10
46.38204200000003
 20
141.1935380000001
 30
0.0
 40
0.1
100
AcDbArc
 50
306.7426589999992
 51
16.74265899999934
  0
LINE
  5
5517
330
A
100
AcDbEntity
  8
0
  6
Continuous
 62
     7
100
AcDbLine
 10
46.47780200000005
 20
141.2223450000001
 30
0.0
 11
46.46718100000001
 21
141.2576530000001
 31
0.0
  0
ARC
  5
5518
330
A
100
AcDbEntity
  8
0
  6
Continuous
 62
     7
100
AcDbCircle
 10
50.0
 20
140.0000000000001
 30
0.0
 40
3.75
100
AcDbArc
 50
143.0806029999996
 51
160.4047150000005
  0
LINE
  5
5519
330
A
100
AcDbEntity
  8
0
  6
Continuous
 62
     7
100
AcDbLine
 10
47.00194500000002
 20
142.2525910000001
 30
0.0
 11
47.03725300000002
 21
142.2632120000001
 31
0.0
  0
ARC
  5
551A
330
A
100
AcDbEntity
  8
0
  6
Continuous
 62
     7
100
AcDbCircle
 10
47.00844500000001
 20
142.358973
 30
0.0
 40
0.1
100
AcDbArc
 50
286.7426589999993
 51
356.7426589999997
  0
LINE
  5
551B
330
A
100
AcDbEntity
  8
0
  6
Continuous
 62
     7
100
AcDbLine
 10
47.10828400000004
 20
142.3532910000001
 30
0.0
 11
47.11037900000003
 21
142.3901020000001
 31
0.0
  0
ARC
  5
551C
330
A
100
AcDbEntity
  8
0
  6
Continuous
 62
     7
100
AcDbCircle
 10
50.0
 20
140.0000000000001
 30
0.0
 40
3.75
100
AcDbArc
 50
123.0806029999994
 51
140.4047150000009
  0
LINE
  5
551D
330
A
100
AcDbEntity
  8
0
  6
Continuous
 62
     7
100
AcDbLine
 10
47.95318100000003
 20
143.142138
 30
0.0
 11
47.989992
 21
143.1400430000001
 31
0.0
  0
ARC
  5
551E
330
A
100
AcDbEntity
  8
0
  6
Continuous
 62
     7
100
AcDbCircle
 10
47.99567400000002
 20
143.239882
 30
0.0
 40
0.1
100
AcDbArc
 50
266.7426589999998
 51
336.7426589999994
  0
LINE
  5
551F
330
A
100
AcDbEntity
  8
0
  6
Continuous
 62
     7
100
AcDbLine
 10
48.08754800000001
 20
143.2003960000001
 30
0.0
 11
48.10210700000003
 21
143.2342700000001
 31
0.0
  0
ARC
  5
5520
330
A
100
AcDbEntity
  8
0
  6
Continuous
 62
     7
100
AcDbCircle
 10
50.0
 20
140.0000000000001
 30
0.0
 40
3.75
100
AcDbArc
 50
103.0806030000004
 51
120.4047149999999
  0
LINE
  5
5521
330
A
100
AcDbEntity
  8
0
  6
Continuous
 62
     7
100
AcDbLine
 10
49.15129400000003
 20
143.6526970000002
 30
0.0
 11
49.18516900000001
 21
143.6381390000001
 31
0.0
  0
ARC
  5
5522
330
A
100
AcDbEntity
  8
0
  6
Continuous
 62
     7
100
AcDbCircle
 10
49.22465500000003
 20
143.730013
 30
0.0
 40
0.1
100
AcDbArc
 50
246.7426589999994
 51
316.7426590000009
  0
LINE
  5
5523
330
A
100
AcDbEntity
  8
0
  6
Continuous
 62
     7
100
AcDbLine
 10
49.29748300000003
 20
143.6614850000001
 30
0.0
 11
49.32275000000003
 21
143.6883370000001
 31
0.0
  0
ARC
  5
5524
330
A
100
AcDbEntity
  8
0
  6
Continuous
 62
     7
100
AcDbCircle
 10
50.0
 20
140.0000000000001
 30
0.0
 40
3.75
100
AcDbArc
 50
83.08060299999976
 51
100.4047150000002
  0
LINE
  5
5525
330
A
100
AcDbEntity
  8
0
  6
Continuous
 62
     7
100
AcDbLine
 10
50.45177300000002
 20
143.7226870000001
 30
0.0
 11
50.47862600000001
 21
143.6974210000001
 31
0.0
  0
ARC
  5
5526
330
A
100
AcDbEntity
  8
0
  6
Continuous
 62
     7
100
AcDbCircle
 10
50.54715300000001
 20
143.7702490000001
 30
0.0
 40
0.1
100
AcDbArc
 50
226.742659000001
 51
296.7426590000006
  0
LINE
  5
5527
330
A
100
AcDbEntity
  8
0
  6
Continuous
 62
     7
100
AcDbLine
 10
50.59215200000004
 20
143.6809450000001
 30
0.0
 11
50.62507900000003
 21
143.6975370000001
 31
0.0
  0
ARC
  5
5528
330
A
100
AcDbEntity
  8
0
  6
Continuous
 62
     7
100
AcDbCircle
 10
50.0
 20
140.0000000000001
 30
0.0
 40
3.75
100
AcDbArc
 50
63.08060299999988
 51
80.40471500000073
  0
LINE
  5
5529
330
A
100
AcDbEntity
  8
0
  6
Continuous
 62
     7
100
AcDbLine
 10
51.69776200000002
 20
143.3436660000001
 30
0.0
 11
51.71435300000003
 21
143.3107390000001
 31
0.0
  0
LINE
  5
552A
330
A
100
AcDbEntity
  8
0
  6
Continuous
 62
     7
100
AcDbLine
 10
49.32275000000003
 20
143.6883370000001
 30
0.0
 11
49.61644200000002
 21
144.0004620000001
 31
0.0
  0
LINE
  5
552B
330
A
100
AcDbEntity
  8
0
  6
Continuous
 62
     7
100
AcDbLine
 10
50.16025100000003
 20
143.9969950000001
 30
0.0
 11
50.45177300000002
 21
143.7226870000001
 31
0.0
  0
LINE
  5
552C
330
A
100
AcDbEntity
  8
0
  6
Continuous
 62
     7
100
AcDbLine
 10
50.62507900000003
 20
143.6975370000001
 30
0.0
 11
51.11574800000002
 21
143.944775
 31
0.0
  0
LINE
  5
552D
330
A
100
AcDbEntity
  8
0
  6
Continuous
 62
     7
100
AcDbLine
 10
51.45011800000002
 20
143.83514
 30
0.0
 11
51.69776200000002
 21
143.3436660000001
 31
0.0
  0
LINE
  5
552E
330
A
100
AcDbEntity
  8
0
  6
Continuous
 62
     7
100
AcDbLine
 10
48.10210700000003
 20
143.2342700000001
 30
0.0
 11
48.31948300000004
 21
143.7400480000001
 31
0.0
  0
LINE
  5
552F
330
A
100
AcDbEntity
  8
0
  6
Continuous
 62
     7
100
AcDbLine
 10
48.64689200000002
 20
143.8694820000001
 30
0.0
 11
49.15129400000003
 21
143.6526970000002
 31
0.0
  0
LINE
  5
5530
330
A
100
AcDbEntity
  8
0
  6
Continuous
 62
     7
100
AcDbLine
 10
51.85201400000002
 20
143.2607580000001
 30
0.0
 11
52.39871800000002
 21
143.3253940000001
 31
0.0
  0
LINE
  5
5531
330
A
100
AcDbEntity
  8
0
  6
Continuous
 62
     7
100
AcDbLine
 10
52.67451600000002
 20
143.106567
 30
0.0
 11
52.73897600000002
 21
142.5613500000001
 31
0.0
  0
LINE
  5
5532
330
A
100
AcDbEntity
  8
0
  6
Continuous
 62
     7
100
AcDbLine
 10
47.11037900000003
 20
142.3901020000001
 30
0.0
 11
47.14159800000003
 21
142.938653
 31
0.0
  0
LINE
  5
5533
330
A
100
AcDbEntity
  8
0
  6
Continuous
 62
     7
100
AcDbLine
 10
47.40373000000004
 20
143.173409
 30
0.0
 11
47.95318100000003
 21
143.142138
 31
0.0
  0
LINE
  5
5534
330
A
100
AcDbEntity
  8
0
  6
Continuous
 62
     7
100
AcDbLine
 10
53.57584500000003
 20
142.0049620000001
 30
0.0
 11
53.44982800000003
 21
141.4700960000001
 31
0.0
  0
LINE
  5
5535
330
A
100
AcDbEntity
  8
0
  6
Continuous
 62
     7
100
AcDbLine
 10
52.85556900000002
 20
142.430685
 30
0.0
 11
53.38997500000003
 21
142.3047760000001
 31
0.0
  0
LINE
  5
5536
330
A
100
AcDbEntity
  8
0
  6
Continuous
 62
     7
100
AcDbLine
 10
46.46718100000001
 20
141.2576530000001
 30
0.0
 11
46.30897200000002
 21
141.7835680000001
 31
0.0
  0
LINE
  5
5537
330
A
100
AcDbEntity
  8
0
  6
Continuous
 62
     7
100
AcDbLine
 10
46.47557800000003
 20
142.094246
 30
0.0
 11
47.00194500000002
 21
142.2525910000001
 31
0.0
  0
LINE
  5
5538
330
A
100
AcDbEntity
  8
0
  6
Continuous
 62
     7
100
AcDbLine
 10
54.04638800000003
 20
140.6617310000001
 30
0.0
 11
53.74458100000001
 21
140.201528
 31
0.0
  0
LINE
  5
5539
330
A
100
AcDbEntity
  8
0
  6
Continuous
 62
     7
100
AcDbLine
 10
53.51470000000002
 20
141.3074340000001
 30
0.0
 11
53.97414900000002
 21
141.0061220000001
 31
0.0
  0
LINE
  5
553A
330
A
100
AcDbEntity
  8
0
  6
Continuous
 62
     7
100
AcDbLine
 10
46.25009400000002
 20
139.973512
 30
0.0
 11
45.92076499999993
 21
140.414654
 31
0.0
  0
LINE
  5
553B
330
A
100
AcDbEntity
  8
0
  6
Continuous
 62
     7
100
AcDbLine
 10
45.97237600000005
 20
140.762915
 30
0.0
 11
46.412318
 21
141.0913480000001
 31
0.0
  0
LINE
  5
553C
330
A
100
AcDbEntity
  8
0
  6
Continuous
 62
     7
100
AcDbLine
 10
54.02762400000002
 20
139.2370850000001
 30
0.0
 11
53.58768200000003
 21
138.9086520000001
 31
0.0
  0
LINE
  5
553D
330
A
100
AcDbEntity
  8
0
  6
Continuous
 62
     7
100
AcDbLine
 10
53.74990600000002
 20
140.026488
 30
0.0
 11
54.07923500000002
 21
139.5853460000001
 31
0.0
  0
LINE
  5
553E
330
A
100
AcDbEntity
  8
0
  6
Continuous
 62
     7
100
AcDbLine
 10
46.48530000000003
 20
138.6925660000001
 30
0.0
 11
46.02585100000004
 21
138.9938780000001
 31
0.0
  0
LINE
  5
553F
330
A
100
AcDbEntity
  8
0
  6
Continuous
 62
     7
100
AcDbLine
 10
45.95361200000002
 20
139.338269
 30
0.0
 11
46.25541900000003
 21
139.7984720000001
 31
0.0
  0
LINE
  5
5540
330
A
100
AcDbEntity
  8
0
  6
Continuous
 62
     7
100
AcDbLine
 10
53.52427100000001
 20
137.9057080000001
 30
0.0
 11
52.99805500000003
 21
137.7474090000001
 31
0.0
  0
LINE
  5
5541
330
A
100
AcDbEntity
  8
0
  6
Continuous
 62
     7
100
AcDbLine
 10
53.53281900000003
 20
138.7423470000001
 30
0.0
 11
53.69098200000003
 21
138.2165840000001
 31
0.0
  0
LINE
  5
5542
330
A
100
AcDbEntity
  8
0
  6
Continuous
 62
     7
100
AcDbLine
 10
47.14443100000003
 20
137.5693150000001
 30
0.0
 11
46.61002500000003
 21
137.6952240000001
 31
0.0
  0
LINE
  5
5543
330
A
100
AcDbEntity
  8
0
  6
Continuous
 62
     7
100
AcDbLine
 10
46.42415500000002
 20
137.995038
 30
0.0
 11
46.55017200000002
 21
138.5299040000001
 31
0.0
  0
LINE
  5
5544
330
A
100
AcDbEntity
  8
0
  6
Continuous
 62
     7
100
AcDbLine
 10
52.88962100000001
 20
137.6098980000001
 30
0.0
 11
52.85840200000002
 21
137.0613470000001
 31
0.0
  0
LINE
  5
5545
330
A
100
AcDbEntity
  8
0
  6
Continuous
 62
     7
100
AcDbLine
 10
52.59627000000001
 20
136.8265910000001
 30
0.0
 11
52.046819
 21
136.8578620000001
 31
0.0
  0
LINE
  5
5546
330
A
100
AcDbEntity
  8
0
  6
Continuous
 62
     7
100
AcDbLine
 10
48.14798600000004
 20
136.7392420000001
 30
0.0
 11
47.60128200000004
 21
136.674606
 31
0.0
  0
LINE
  5
5547
330
A
100
AcDbEntity
  8
0
  6
Continuous
 62
     7
100
AcDbLine
 10
47.32548400000003
 20
136.8934330000001
 30
0.0
 11
47.26102400000002
 21
137.4386500000001
 31
0.0
  0
LINE
  5
5548
330
A
100
AcDbEntity
  8
0
  6
Continuous
 62
     7
100
AcDbLine
 10
51.89789300000001
 20
136.7657299999999
 30
0.0
 11
51.68051700000003
 21
136.2599520000001
 31
0.0
  0
LINE
  5
5549
330
A
100
AcDbEntity
  8
0
  6
Continuous
 62
     7
100
AcDbLine
 10
51.35310800000002
 20
136.130518
 30
0.0
 11
50.84870600000003
 21
136.3473029999999
 31
0.0
  0
LINE
  5
554A
330
A
100
AcDbEntity
  8
0
  6
Continuous
 62
     7
100
AcDbLine
 10
49.37492099999995
 20
136.302463
 30
0.0
 11
48.88425200000002
 21
136.0552250000001
 31
0.0
  0
LINE
  5
554B
330
A
100
AcDbEntity
  8
0
  6
Continuous
 62
     7
100
AcDbLine
 10
48.54988200000002
 20
136.1648600000001
 30
0.0
 11
48.30223800000001
 21
136.656334
 31
0.0
  0
LINE
  5
554C
330
A
100
AcDbEntity
  8
0
  6
Continuous
 62
     7
100
AcDbLine
 10
50.67725000000002
 20
136.3116630000001
 30
0.0
 11
50.38355800000003
 21
135.999538
 31
0.0
  0
LINE
  5
554D
330
A
100
AcDbEntity
  8
0
  6
Continuous
 62
     7
100
AcDbLine
 10
49.83974900000003
 20
136.003005
 30
0.0
 11
49.54822700000002
 21
136.2773130000001
 31
0.0
  0
ARC
  5
554E
330
A
100
AcDbEntity
  8
0
  6
Continuous
 62
     7
100
AcDbCircle
 10
50.0
 20
140.0000000000001
 30
0.0
 40
4.0
100
AcDbArc
 50
55.78463699999952
 51
67.70068099999939
  0
ARC
  5
554F
330
A
100
AcDbEntity
  8
0
  6
Continuous
 62
     7
100
AcDbCircle
 10
50.0
 20
140.0000000000001
 30
0.0
 40
4.0
100
AcDbArc
 50
75.78463699999963
 51
87.70068099999994
  0
ARC
  5
5550
330
A
100
AcDbEntity
  8
0
  6
Continuous
 62
     7
100
AcDbCircle
 10
50.0
 20
140.0000000000001
 30
0.0
 40
4.0
100
AcDbArc
 50
95.7846369999992
 51
107.7006809999998
  0
ARC
  5
5551
330
A
100
AcDbEntity
  8
0
  6
Continuous
 62
     7
100
AcDbCircle
 10
50.0
 20
140.0000000000001
 30
0.0
 40
4.0
100
AcDbArc
 50
115.7846370000003
 51
127.7006809999994
  0
ARC
  5
5552
330
A
100
AcDbEntity
  8
0
  6
Continuous
 62
     7
100
AcDbCircle
 10
50.0
 20
140.0000000000001
 30
0.0
 40
4.0
100
AcDbArc
 50
135.7846369999994
 51
147.7006809999993
  0
ARC
  5
5553
330
A
100
AcDbEntity
  8
0
  6
Continuous
 62
     7
100
AcDbCircle
 10
50.0
 20
140.0000000000001
 30
0.0
 40
4.0
100
AcDbArc
 50
155.7846370000006
 51
167.7006810000002
  0
ARC
  5
5554
330
A
100
AcDbEntity
  8
0
  6
Continuous
 62
     7
100
AcDbCircle
 10
50.0
 20
140.0000000000001
 30
0.0
 40
4.0
100
AcDbArc
 50
175.7846369999999
 51
187.7006809999994
  0
ARC
  5
5555
330
A
100
AcDbEntity
  8
0
  6
Continuous
 62
     7
100
AcDbCircle
 10
50.0
 20
140.0000000000001
 30
0.0
 40
4.0
100
AcDbArc
 50
195.7846369999993
 51
207.7006809999995
  0
ARC
  5
5556
330
A
100
AcDbEntity
  8
0
  6
Continuous
 62
     7
100
AcDbCircle
 10
50.0
 20
140.0000000000001
 30
0.0
 40
4.0
100
AcDbArc
 50
215.7846369999997
 51
227.7006810000006
  0
ARC
  5
5557
330
A
100
AcDbEntity
  8
0
  6
Continuous
 62
     7
100
AcDbCircle
 10
50.0
 20
140.0000000000001
 30
0.0
 40
4.0
100
AcDbArc
 50
235.7846369999994
 51
247.7006809999994
  0
ARC
  5
5558
330
A
100
AcDbEntity
  8
0
  6
Continuous
 62
     7
100
AcDbCircle
 10
50.0
 20
140.0000000000001
 30
0.0
 40
4.0
100
AcDbArc
 50
255.7846369999996
 51
267.7006810000001
  0
ARC
  5
5559
330
A
100
AcDbEntity
  8
0
  6
Continuous
 62
     7
100
AcDbCircle
 10
50.0
 20
140.0000000000001
 30
0.0
 40
4.0
100
AcDbArc
 50
275.7846370000008
 51
287.7006809999999
  0
ARC
  5
555A
330
A
100
AcDbEntity
  8
0
  6
Continuous
 62
     7
100
AcDbCircle
 10
50.0
 20
140.0000000000001
 30
0.0
 40
4.0
100
AcDbArc
 50
295.7846370000003
 51
307.7006809999996
  0
ARC
  5
555B
330
A
100
AcDbEntity
  8
0
  6
Continuous
 62
     7
100
AcDbCircle
 10
50.0
 20
140.0000000000001
 30
0.0
 40
4.0
100
AcDbArc
 50
315.7846369999995
 51
327.7006809999993
  0
ARC
  5
555C
330
A
100
AcDbEntity
  8
0
  6
Continuous
 62
     7
100
AcDbCircle
 10
50.0
 20
140.0000000000001
 30
0.0
 40
4.0
100
AcDbArc
 50
335.7846370000006
 51
347.7006810000002
  0
ARC
  5
555D
330
A
100
AcDbEntity
  8
0
  6
Continuous
 62
     7
100
AcDbCircle
 10
50.0
 20
140.0000000000001
 30
0.0
 40
4.0
100
AcDbArc
 50
355.7846369999999
 51
7.700680999999516
  0
ARC
  5
555E
330
A
100
AcDbEntity
  8
0
  6
Continuous
 62
     7
100
AcDbCircle
 10
50.0
 20
140.0000000000001
 30
0.0
 40
4.0
100
AcDbArc
 50
15.78463699999941
 51
27.70068099999952
  0
ARC
  5
555F
330
A
100
AcDbEntity
  8
0
  6
Continuous
 62
     7
100
AcDbCircle
 10
50.0
 20
140.0000000000001
 30
0.0
 40
4.0
100
AcDbArc
 50
35.78463699999975
 51
47.70068100000054
  0
LINE
  5
5560
330
A
100
AcDbEntity
  8
0
  6
Continuous
 62
     7
100
AcDbLine
 10
8.650000000000019
 20
136.0000000000001
 30
0.0
 11
8.650000000000019
 21
144.0000000000001
 31
0.0
  0
LINE
  5
5561
330
A
100
AcDbEntity
  8
0
  6
Continuous
 62
     9
100
AcDbLine
 10
1.650000000000025
 20
136.0000000000001
 30
0.0
 11
1.650000000000025
 21
144.0000000000001
 31
0.0
  0
LINE
  5
5562
330
A
100
AcDbEntity
  8
0
  6
Continuous
 62
     7
100
AcDbLine
 10
-5.349999999999976
 20
136.0000000000001
 30
0.0
 11
-5.349999999999976
 21
144.0000000000001
 31
0.0
  0
LINE
  5
5563
330
A
100
AcDbEntity
  8
0
  6
Continuous
 62
     9
100
AcDbLine
 10
59.00000000000002
 20
151.5000000000001
 30
0.0
 11
-12.49999999999997
 21
151.5000000000001
 31
0.0
  0
LINE
  5
5564
330
A
100
AcDbEntity
  8
0
  6
Continuous
 62
     9
100
AcDbLine
 10
-12.49999999999997
 20
151.5000000000001
 30
0.0
 11
-12.49999999999997
 21
152.5000000000001
 31
0.0
  0
LINE
  5
5565
330
A
100
AcDbEntity
  8
0
  6
Continuous
 62
     7
100
AcDbLine
 10
-12.49999999999997
 20
152.5000000000001
 30
0.0
 11
59.00000000000002
 21
152.5000000000001
 31
0.0
  0
LINE
  5
5566
330
A
100
AcDbEntity
  8
0
  6
Continuous
 62
     9
100
AcDbLine
 10
59.00000000000002
 20
151.5000000000001
 30
0.0
 11
59.00000000000002
 21
152.5000000000001
 31
0.0
  0
ARC
  5
5567
330
A
100
AcDbEntity
  8
0
  6
Continuous
 62
     9
100
AcDbCircle
 10
59.00000000000002
 20
148.5000000000001
 30
0.0
 40
3.0
100
AcDbArc
 50
0.0
 51
90.0
  0
ARC
  5
5568
330
A
100
AcDbEntity
  8
0
  6
Continuous
 62
     7
100
AcDbCircle
 10
59.00000000000002
 20
148.5000000000001
 30
0.0
 40
4.0
100
AcDbArc
 50
0.0
 51
90.0
  0
LINE
  5
5569
330
A
100
AcDbEntity
  8
0
  6
Continuous
 62
     9
100
AcDbLine
 10
62.00000000000001
 20
148.5000000000001
 30
0.0
 11
63.0
 21
148.5000000000001
 31
0.0
  0
LINE
  5
556A
330
A
100
AcDbEntity
  8
0
  6
Continuous
 62
     9
100
AcDbLine
 10
-12.49999999999997
 20
151.5000000000001
 30
0.0
 11
-16.99999999999997
 21
151.5000000000001
 31
0.0
  0
ARC
  5
556B
330
A
100
AcDbEntity
  8
0
  6
Continuous
 62
     7
100
AcDbCircle
 10
-15.99999999999997
 20
151.5000000000001
 30
0.0
 40
1.0
100
AcDbArc
 50
90.0
 51
180.0
  0
LINE
  5
556C
330
A
100
AcDbEntity
  8
0
  6
Continuous
 62
     7
100
AcDbLine
 10
-15.99999999999997
 20
152.5000000000001
 30
0.0
 11
-12.49999999999997
 21
152.5000000000001
 31
0.0
  0
LINE
  5
556D
330
A
100
AcDbEntity
  8
0
  6
Continuous
 62
     9
100
AcDbLine
 10
-12.49999999999997
 20
151.5000000000001
 30
0.0
 11
-12.49999999999997
 21
145.5000000000001
 31
0.0
  0
LINE
  5
556E
330
A
100
AcDbEntity
  8
0
  6
Continuous
 62
     9
100
AcDbLine
 10
62.00000000000001
 20
145.5000000000001
 30
0.0
 11
62.00000000000001
 21
148.5000000000001
 31
0.0
  0
LINE
  5
556F
330
A
100
AcDbEntity
  8
0
  6
Continuous
 62
     7
100
AcDbLine
 10
-12.49999999999997
 20
145.5000000000001
 30
0.0
 11
62.00000000000001
 21
145.5000000000001
 31
0.0
  0
LINE
  5
5570
330
A
100
AcDbEntity
  8
0
  6
Continuous
 62
     7
100
AcDbLine
 10
-12.49999999999997
 20
145.5000000000001
 30
0.0
 11
-16.99999999999997
 21
145.5000000000001
 31
0.0
  0
LINE
  5
5571
330
A
100
AcDbEntity
  8
0
  6
Continuous
 62
     7
100
AcDbLine
 10
-16.99999999999997
 20
145.5000000000001
 30
0.0
 11
-16.99999999999997
 21
151.5000000000001
 31
0.0
  0
LINE
  5
5572
330
A
100
AcDbEntity
  8
0
  6
Continuous
 62
     7
100
AcDbLine
 10
63.0
 20
148.5000000000001
 30
0.0
 11
63.0
 21
145.5000000000001
 31
0.0
  0
LINE
  5
5573
330
A
100
AcDbEntity
  8
0
  6
Continuous
 62
     7
100
AcDbLine
 10
63.0
 20
145.5000000000001
 30
0.0
 11
62.00000000000001
 21
145.5000000000001
 31
0.0
  0
LINE
  5
5574
330
A
100
AcDbEntity
  8
0
  6
Continuous
 62
     7
100
AcDbLine
 10
60.5
 20
135.0000000000001
 30
0.0
 11
63.0
 21
135.0000000000001
 31
0.0
  0
ARC
  5
5575
330
A
100
AcDbEntity
  8
0
  6
Continuous
 62
     7
100
AcDbCircle
 10
50.0
 20
140.0000000000001
 30
0.0
 40
4.099999999999996
100
AcDbArc
 50
102.6803840000007
 51
257.3196139999994
  0
ARC
  5
5576
330
A
100
AcDbEntity
  8
0
  6
Continuous
 62
     7
100
AcDbCircle
 10
50.0
 20
140.0000000000001
 30
0.0
 40
4.099999999999996
100
AcDbArc
 50
282.6803860000006
 51
77.31961599999927
  0
LINE
  5
5577
330
A
100
AcDbEntity
  8
0
  6
Continuous
 62
     7
100
AcDbLine
 10
8.800000000000025
 20
144.0000000000001
 30
0.0
 11
8.800000000000025
 21
136.0000000000001
 31
0.0
  0
LINE
  5
5578
330
A
100
AcDbEntity
  8
0
  6
Continuous
 62
     7
100
AcDbLine
 10
63.0
 20
135.0000000000001
 30
0.0
 11
63.0
 21
145.5000000000001
 31
0.0
  0
LINE
  5
5579
330
A
100
AcDbEntity
  8
0
  6
Continuous
 62
     7
100
AcDbLine
 10
-15.99999999999997
 20
145.5000000000001
 30
0.0
 11
-15.49999999999997
 21
145.5000000000001
 31
0.0
  0
ARC
  5
557A
330
A
100
AcDbEntity
  8
0
  6
Continuous
 62
     7
100
AcDbCircle
 10
52.00564500000003
 20
128.779162
 30
0.0
 40
6.5
100
AcDbArc
 50
275.1304229999993
 51
348.6504460000003
  0
ARC
  5
557B
330
A
100
AcDbEntity
  8
0
  6
Continuous
 62
     7
100
AcDbCircle
 10
52.40804900000003
 20
124.2971900000001
 30
0.0
 40
2.0
100
AcDbArc
 50
251.9364990000006
 51
275.1304229999993
  0
ARC
  5
557C
330
A
100
AcDbEntity
  8
0
  6
Continuous
 62
     7
100
AcDbCircle
 10
50.00500000000003
 20
116.929161
 30
0.0
 40
5.75
100
AcDbArc
 50
71.93649900000065
 51
105.722807
  0
ARC
  5
557D
330
A
100
AcDbEntity
  8
0
  6
Continuous
 62
     7
100
AcDbCircle
 10
47.904877
 20
124.3891870000001
 30
0.0
 40
2.0
100
AcDbArc
 50
250.1112600000007
 51
285.7228069999999
  0
ARC
  5
557E
330
A
100
AcDbEntity
  8
0
  6
Continuous
 62
     7
100
AcDbCircle
 10
53.00779800000002
 20
138.494512
 30
0.0
 40
17.0
100
AcDbArc
 50
220.2959590000005
 51
250.1112600000007
  0
ARC
  5
557F
330
A
100
AcDbEntity
  8
0
  6
Continuous
 62
     7
100
AcDbCircle
 10
53.00779800000002
 20
141.5054880000001
 30
0.0
 40
17.0
100
AcDbArc
 50
109.8887399999993
 51
139.7040399999999
  0
ARC
  5
5580
330
A
100
AcDbEntity
  8
0
  6
Continuous
 62
     7
100
AcDbCircle
 10
47.904877
 20
155.6108130000001
 30
0.0
 40
2.0
100
AcDbArc
 50
74.27719299999998
 51
109.8887399999993
  0
ARC
  5
5581
330
A
100
AcDbEntity
  8
0
  6
Continuous
 62
     7
100
AcDbCircle
 10
50.00500000000003
 20
163.0708390000001
 30
0.0
 40
5.75
100
AcDbArc
 50
254.277193
 51
288.0635009999993
  0
ARC
  5
5582
330
A
100
AcDbEntity
  8
0
  6
Continuous
 62
     7
100
AcDbCircle
 10
52.40804900000003
 20
155.7028090000001
 30
0.0
 40
2.0
100
AcDbArc
 50
84.86957700000067
 51
108.0635009999993
  0
ARC
  5
5583
330
A
100
AcDbEntity
  8
0
  6
Continuous
 62
     7
100
AcDbCircle
 10
52.00564500000003
 20
151.2208380000001
 30
0.0
 40
6.5
100
AcDbArc
 50
11.34955500000029
 51
84.86957700000067
  0
ARC
  5
5584
330
A
100
AcDbEntity
  8
0
  6
Continuous
 62
     7
100
AcDbCircle
 10
27.82982900000003
 20
127.9
 30
0.0
 40
0.5
100
AcDbArc
 50
270.0
 51
306.869895000001
  0
ARC
  5
5585
330
A
100
AcDbEntity
  8
0
  6
Continuous
 62
     7
100
AcDbCircle
 10
17.87017100000001
 20
127.9
 30
0.0
 40
0.5
100
AcDbArc
 50
233.130104999999
 51
270.0
  0
LINE
  5
5586
330
A
100
AcDbEntity
  8
0
  6
Continuous
 62
     7
100
AcDbLine
 10
-12.49999999999997
 20
-14.9999999999999
 30
0.0
 11
-12.64999999999997
 21
-14.9999999999999
 31
0.0
  0
ARC
  5
5587
330
A
100
AcDbEntity
  8
0
  6
Continuous
 62
     7
100
AcDbCircle
 10
-12.64999999999997
 20
-10.4999999999999
 30
0.0
 40
4.5
100
AcDbArc
 50
180.0
 51
270.0
  0
LINE
  5
5588
330
A
100
AcDbEntity
  8
0
  6
Continuous
 62
     7
100
AcDbLine
 10
-17.14999999999997
 20
-10.4999999999999
 30
0.0
 11
-17.14999999999997
 21
80.50000000000009
 31
0.0
  0
LINE
  5
5589
330
A
100
AcDbEntity
  8
0
  6
Continuous
 62
     7
100
AcDbLine
 10
-12.64999999999997
 20
85.0000000000001
 30
0.0
 11
-12.49999999999997
 21
85.0000000000001
 31
0.0
  0
ARC
  5
558A
330
A
100
AcDbEntity
  8
0
  6
Continuous
 62
     7
100
AcDbCircle
 10
-12.64999999999997
 20
80.50000000000009
 30
0.0
 40
4.5
100
AcDbArc
 50
90.0
 51
180.0
  0
LINE
  5
558B
330
A
100
AcDbEntity
  8
0
  6
Continuous
 62
     7
100
AcDbLine
 10
36.02500000000003
 20
40.5000000000001
 30
0.0
 11
36.65380000000003
 21
40.5000000000001
 31
0.0
  0
LINE
  5
558C
330
A
100
AcDbEntity
  8
0
  6
Continuous
 62
     7
100
AcDbLine
 10
36.65380000000003
 20
40.20000000000009
 30
0.0
 11
36.02500000000003
 21
40.20000000000009
 31
0.0
  0
LINE
  5
558D
330
A
100
AcDbEntity
  8
0
  6
Continuous
 62
     7
100
AcDbLine
 10
36.02500000000003
 20
29.80000000000011
 30
0.0
 11
36.65380000000003
 21
29.80000000000011
 31
0.0
  0
LINE
  5
558E
330
A
100
AcDbEntity
  8
0
  6
Continuous
 62
     7
100
AcDbLine
 10
36.65380000000003
 20
29.5000000000001
 30
0.0
 11
36.02500000000003
 21
29.5000000000001
 31
0.0
  0
LINE
  5
558F
330
A
100
AcDbEntity
  8
0
  6
Continuous
 62
     9
100
AcDbLine
 10
58.25000000000001
 20
59.4500000000001
 30
0.0
 11
50.0
 21
59.4500000000001
 31
0.0
  0
LINE
  5
5590
330
A
100
AcDbEntity
  8
0
  6
Continuous
 62
     7
100
AcDbLine
 10
57.65000000000002
 20
60.0500000000001
 30
0.0
 11
50.0
 21
60.0500000000001
 31
0.0
  0
LINE
  5
5591
330
A
100
AcDbEntity
  8
0
  6
Continuous
 62
     7
100
AcDbLine
 10
50.0
 20
60.0500000000001
 30
0.0
 11
42.35000000000002
 21
60.0500000000001
 31
0.0
  0
LINE
  5
5592
330
A
100
AcDbEntity
  8
0
  6
Continuous
 62
     9
100
AcDbLine
 10
50.0
 20
59.4500000000001
 30
0.0
 11
41.75
 21
59.4500000000001
 31
0.0
  0
LINE
  5
5593
330
A
100
AcDbEntity
  8
0
  6
Continuous
 62
     7
100
AcDbLine
 10
54.85000000000002
 20
60.0500000000001
 30
0.0
 11
54.26226299999999
 21
60.0500000000001
 31
0.0
  0
LINE
  5
5594
330
A
100
AcDbEntity
  8
0
  6
Continuous
 62
     7
100
AcDbLine
 10
54.26226299999999
 20
60.0500000000001
 30
0.0
 11
50.75870700000002
 21
60.0500000000001
 31
0.0
  0
LINE
  5
5595
330
A
100
AcDbEntity
  8
0
  6
Continuous
 62
     7
100
AcDbLine
 10
50.69979400000002
 20
60.0500000000001
 30
0.0
 11
50.05002200000003
 21
60.0500000000001
 31
0.0
  0
LINE
  5
5596
330
A
100
AcDbEntity
  8
0
  6
Continuous
 62
     7
100
AcDbLine
 10
50.05002200000003
 20
60.0500000000001
 30
0.0
 11
50.0
 21
60.0500000000001
 31
0.0
  0
LINE
  5
5597
330
A
100
AcDbEntity
  8
0
  6
Continuous
 62
     7
100
AcDbLine
 10
49.24129300000003
 20
60.0500000000001
 30
0.0
 11
47.25293000000003
 21
60.0500000000001
 31
0.0
  0
LINE
  5
5598
330
A
100
AcDbEntity
  8
0
  6
Continuous
 62
     7
100
AcDbLine
 10
47.25293000000003
 20
60.0500000000001
 30
0.0
 11
45.62246100000002
 21
60.0500000000001
 31
0.0
  0
LINE
  5
5599
330
A
100
AcDbEntity
  8
0
  6
Continuous
 62
     7
100
AcDbLine
 10
45.62246100000002
 20
60.0500000000001
 30
0.0
 11
45.15000000000003
 21
60.0500000000001
 31
0.0
  0
LINE
  5
559A
330
A
100
AcDbEntity
  8
0
  6
Continuous
 62
     7
100
AcDbLine
 10
36.02500000000003
 20
42.00000000000009
 30
0.0
 11
36.02500000000003
 21
28.00000000000011
 31
0.0
  0
LINE
  5
559B
330
A
100
AcDbEntity
  8
0
  6
Continuous
 62
     7
100
AcDbLine
 10
45.30000000000002
 20
28.95000000000008
 30
0.0
 11
50.81614600000001
 21
28.95000000000008
 31
0.0
  0
LINE
  5
559C
330
A
100
AcDbEntity
  8
0
  6
Continuous
 62
     7
100
AcDbLine
 10
50.81614600000001
 20
28.95000000000008
 30
0.0
 11
54.70000000000003
 21
28.95000000000008
 31
0.0
  0
LINE
  5
559D
330
A
100
AcDbEntity
  8
0
  6
Continuous
 62
     7
100
AcDbLine
 10
54.70000000000003
 20
41.05000000000011
 30
0.0
 11
48.01187100000003
 21
41.05000000000011
 31
0.0
  0
LINE
  5
559E
330
A
100
AcDbEntity
  8
0
  6
Continuous
 62
     7
100
AcDbLine
 10
48.01187100000003
 20
41.05000000000011
 30
0.0
 11
45.30000000000002
 21
41.05000000000011
 31
0.0
  0
LINE
  5
559F
330
A
100
AcDbEntity
  8
0
  6
Continuous
 62
     7
100
AcDbLine
 10
70.50000000000001
 20
-14.9999999999999
 30
0.0
 11
70.50000000000001
 21
85.0000000000001
 31
0.0
  0
LINE
  5
55A0
330
A
100
AcDbEntity
  8
0
  6
Continuous
 62
     7
100
AcDbLine
 10
70.50000000000001
 20
-14.9999999999999
 30
0.0
 11
65.50000000000001
 21
-14.9999999999999
 31
0.0
  0
LINE
  5
55A1
330
A
100
AcDbEntity
  8
0
  6
Continuous
 62
     7
100
AcDbLine
 10
65.50000000000001
 20
-14.9999999999999
 30
0.0
 11
65.50000000000001
 21
85.0000000000001
 31
0.0
  0
LINE
  5
55A2
330
A
100
AcDbEntity
  8
0
  6
Continuous
 62
     7
100
AcDbLine
 10
70.50000000000001
 20
85.0000000000001
 30
0.0
 11
65.50000000000001
 21
85.0000000000001
 31
0.0
  0
LINE
  5
55A3
330
A
100
AcDbEntity
  8
0
  6
Continuous
 62
     9
100
AcDbLine
 10
64.00000000000002
 20
11.0000000000001
 30
0.0
 11
64.00000000000002
 21
59.00000000000009
 31
0.0
  0
LINE
  5
55A4
330
A
100
AcDbEntity
  8
0
  6
Continuous
 62
     7
100
AcDbLine
 10
64.00000000000002
 20
59.00000000000009
 30
0.0
 11
64.52431300000002
 21
59.00000000000009
 31
0.0
  0
LINE
  5
55B1
330
A
100
AcDbEntity
  8
0
  6
Continuous
 62
     7
100
AcDbLine
 10
65.29255300000007
 20
85.0000000000001
 30
0.0
 11
65.29255300000007
 21
60.0000000000001
 31
0.0
  0
LINE
  5
55B2
330
A
100
AcDbEntity
  8
0
  6
Continuous
 62
     7
100
AcDbLine
 10
65.29255300000007
 20
-14.9999999999999
 30
0.0
 11
65.29255300000007
 21
10.0000000000001
 31
0.0
  0
LINE
  5
55BF
330
A
100
AcDbEntity
  8
0
  6
Continuous
 62
     7
100
AcDbLine
 10
64.00000000000002
 20
11.0000000000001
 30
0.0
 11
64.52431300000002
 21
11.0000000000001
 31
0.0
  0
LINE
  5
55C0
330
A
100
AcDbEntity
  8
0
  6
Continuous
 62
     7
100
AcDbLine
 10
65.29255300000007
 20
-14.9999999999999
 30
0.0
 11
65.50000000000001
 21
-14.9999999999999
 31
0.0
  0
LINE
  5
55C1
330
A
100
AcDbEntity
  8
0
  6
Continuous
 62
     7
100
AcDbLine
 10
65.29255300000007
 20
85.0000000000001
 30
0.0
 11
65.50000000000001
 21
85.0000000000001
 31
0.0
  0
ARC
  5
55C2
330
A
100
AcDbEntity
  8
0
  6
Continuous
 62
     7
100
AcDbCircle
 10
56.80000000000002
 20
29.10000000000012
 30
0.0
 40
0.2
100
AcDbArc
 50
270.0
 51
0.0
  0
ARC
  5
55C3
330
A
100
AcDbEntity
  8
0
  6
Continuous
 62
     7
100
AcDbCircle
 10
56.80000000000002
 20
40.90000000000006
 30
0.0
 40
0.2
100
AcDbArc
 50
29.99899299999965
 51
90.0
  0
LINE
  5
55C4
330
A
100
AcDbEntity
  8
0
  6
Continuous
 62
     7
100
AcDbLine
 10
56.80000000000002
 20
41.10000000000012
 30
0.0
 11
51.00000000000001
 21
41.10000000000012
 31
0.0
  0
LINE
  5
55C5
330
A
100
AcDbEntity
  8
0
  6
Continuous
 62
     9
100
AcDbLine
 10
51.00000000000001
 20
41.10000000000012
 30
0.0
 11
51.00000000000001
 21
59.00000000000009
 31
0.0
  0
LINE
  5
55C6
330
A
100
AcDbEntity
  8
0
  6
Continuous
 62
     9
100
AcDbLine
 10
51.00000000000001
 20
11.0000000000001
 30
0.0
 11
51.00000000000001
 21
28.90000000000008
 31
0.0
  0
LINE
  5
55C7
330
A
100
AcDbEntity
  8
0
  6
Continuous
 62
     7
100
AcDbLine
 10
51.00000000000001
 20
28.90000000000008
 30
0.0
 11
56.80000000000002
 21
28.90000000000008
 31
0.0
  0
LINE
  5
55C8
330
A
100
AcDbEntity
  8
0
  6
Continuous
 62
     7
100
AcDbLine
 10
64.00000000000002
 20
11.0000000000001
 30
0.0
 11
51.00000000000001
 21
11.0000000000001
 31
0.0
  0
LINE
  5
55C9
330
A
100
AcDbEntity
  8
0
  6
Continuous
 62
     7
100
AcDbLine
 10
64.00000000000002
 20
59.00000000000009
 30
0.0
 11
51.00000000000001
 21
59.00000000000009
 31
0.0
  0
LINE
  5
55CA
330
A
100
AcDbEntity
  8
0
  6
Continuous
 62
     7
100
AcDbLine
 10
51.00000000000001
 20
41.10000000000012
 30
0.0
 11
40.0
 21
41.10000000000012
 31
0.0
  0
LINE
  5
55CB
330
A
100
AcDbEntity
  8
0
  6
Continuous
 62
     7
100
AcDbLine
 10
51.00000000000001
 20
59.00000000000009
 30
0.0
 11
40.0
 21
59.00000000000009
 31
0.0
  0
LINE
  5
55CC
330
A
100
AcDbEntity
  8
0
  6
Continuous
 62
     7
100
AcDbLine
 10
40.0
 20
28.90000000000008
 30
0.0
 11
51.00000000000001
 21
28.90000000000008
 31
0.0
  0
LINE
  5
55CD
330
A
100
AcDbEntity
  8
0
  6
Continuous
 62
     7
100
AcDbLine
 10
51.00000000000001
 20
11.0000000000001
 30
0.0
 11
40.0
 21
11.0000000000001
 31
0.0
  0
LINE
  5
55CE
330
A
100
AcDbEntity
  8
0
  6
Continuous
 62
     9
100
AcDbLine
 10
63.0
 20
84.00000000000011
 30
0.0
 11
59.00000000000002
 21
84.00000000000011
 31
0.0
  0
LINE
  5
55CF
330
A
100
AcDbEntity
  8
0
  6
Continuous
 62
     9
100
AcDbLine
 10
59.00000000000002
 20
84.00000000000011
 30
0.0
 11
59.00000000000002
 21
85.0000000000001
 31
0.0
  0
LINE
  5
55D0
330
A
100
AcDbEntity
  8
0
  6
Continuous
 62
     7
100
AcDbLine
 10
59.00000000000002
 20
85.0000000000001
 30
0.0
 11
62.00000000000001
 21
85.0000000000001
 31
0.0
  0
ARC
  5
55D1
330
A
100
AcDbEntity
  8
0
  6
Continuous
 62
     7
100
AcDbCircle
 10
62.00000000000001
 20
84.00000000000011
 30
0.0
 40
1.0
100
AcDbArc
 50
0.0
 51
90.0
  0
ARC
  5
55D2
330
A
100
AcDbEntity
  8
0
  6
Continuous
 62
     9
100
AcDbCircle
 10
-12.49999999999997
 20
80.50000000000009
 30
0.0
 40
3.5
100
AcDbArc
 50
90.0
 51
180.0
  0
LINE
  5
55D3
330
A
100
AcDbEntity
  8
0
  6
Continuous
 62
     9
100
AcDbLine
 10
-15.99999999999997
 20
80.50000000000009
 30
0.0
 11
-16.99999999999997
 21
80.50000000000009
 31
0.0
  0
ARC
  5
55D4
330
A
100
AcDbEntity
  8
0
  6
Continuous
 62
     7
100
AcDbCircle
 10
-12.49999999999997
 20
80.50000000000009
 30
0.0
 40
4.5
100
AcDbArc
 50
90.0
 51
180.0
  0
LINE
  5
55D5
330
A
100
AcDbEntity
  8
0
  6
Continuous
 62
     9
100
AcDbLine
 10
-12.49999999999997
 20
84.00000000000011
 30
0.0
 11
-12.49999999999997
 21
85.0000000000001
 31
0.0
  0
LINE
  5
55D6
330
A
100
AcDbEntity
  8
0
  6
Continuous
 62
     9
100
AcDbLine
 10
59.00000000000002
 20
84.00000000000011
 30
0.0
 11
-12.49999999999997
 21
84.00000000000011
 31
0.0
  0
LINE
  5
55D7
330
A
100
AcDbEntity
  8
0
  6
Continuous
 62
     7
100
AcDbLine
 10
-12.49999999999997
 20
85.0000000000001
 30
0.0
 11
59.00000000000002
 21
85.0000000000001
 31
0.0
  0
LINE
  5
55D8
330
A
100
AcDbEntity
  8
0
  6
Continuous
 62
     7
100
AcDbLine
 10
63.0
 20
60.3000000000001
 30
0.0
 11
59.00000000000002
 21
60.3000000000001
 31
0.0
  0
LINE
  5
55D9
330
A
100
AcDbEntity
  8
0
  6
Continuous
 62
     9
100
AcDbLine
 10
59.00000000000002
 20
60.3000000000001
 30
0.0
 11
59.00000000000002
 21
84.00000000000011
 31
0.0
  0
LINE
  5
55DA
330
A
100
AcDbEntity
  8
0
  6
Continuous
 62
     7
100
AcDbLine
 10
63.0
 20
84.00000000000011
 30
0.0
 11
63.0
 21
60.3000000000001
 31
0.0
  0
LINE
  5
55DB
330
A
100
AcDbEntity
  8
0
  6
Continuous
 62
     7
100
AcDbLine
 10
38.50000000000001
 20
60.3000000000001
 30
0.0
 11
59.00000000000002
 21
60.3000000000001
 31
0.0
  0
LINE
  5
55DC
330
A
100
AcDbEntity
  8
0
  6
Continuous
 62
     7
100
AcDbLine
 10
38.50000000000001
 20
42.00000000000009
 30
0.0
 11
38.50000000000001
 21
60.3000000000001
 31
0.0
  0
LINE
  5
55DD
330
A
100
AcDbEntity
  8
0
  6
Continuous
 62
     7
100
AcDbLine
 10
32.00000000000001
 20
42.00000000000009
 30
0.0
 11
38.50000000000001
 21
42.00000000000009
 31
0.0
  0
LINE
  5
55DE
330
A
100
AcDbEntity
  8
0
  6
Continuous
 62
     7
100
AcDbLine
 10
32.00000000000001
 20
28.00000000000011
 30
0.0
 11
32.00000000000001
 21
42.00000000000009
 31
0.0
  0
LINE
  5
55DF
330
A
100
AcDbEntity
  8
0
  6
Continuous
 62
     7
100
AcDbLine
 10
38.50000000000001
 20
28.00000000000011
 30
0.0
 11
32.00000000000001
 21
28.00000000000011
 31
0.0
  0
LINE
  5
55E0
330
A
100
AcDbEntity
  8
0
  6
Continuous
 62
     7
100
AcDbLine
 10
38.50000000000001
 20
9.700000000000088
 30
0.0
 11
38.50000000000001
 21
28.00000000000011
 31
0.0
  0
LINE
  5
55E1
330
A
100
AcDbEntity
  8
0
  6
Continuous
 62
     7
100
AcDbLine
 10
59.00000000000002
 20
9.700000000000088
 30
0.0
 11
38.50000000000001
 21
9.700000000000088
 31
0.0
  0
LINE
  5
55E2
330
A
100
AcDbEntity
  8
0
  6
Continuous
 62
     9
100
AcDbLine
 10
59.00000000000002
 20
-13.9999999999999
 30
0.0
 11
59.00000000000002
 21
9.700000000000088
 31
0.0
  0
LINE
  5
55E3
330
A
100
AcDbEntity
  8
0
  6
Continuous
 62
     9
100
AcDbLine
 10
-12.49999999999997
 20
-13.9999999999999
 30
0.0
 11
59.00000000000002
 21
-13.9999999999999
 31
0.0
  0
ARC
  5
55E4
330
A
100
AcDbEntity
  8
0
  6
Continuous
 62
     9
100
AcDbCircle
 10
-12.49999999999997
 20
-10.4999999999999
 30
0.0
 40
3.5
100
AcDbArc
 50
180.0
 51
270.0
  0
LINE
  5
55E5
330
A
100
AcDbEntity
  8
0
  6
Continuous
 62
     9
100
AcDbLine
 10
-15.99999999999997
 20
80.50000000000009
 30
0.0
 11
-15.99999999999997
 21
-10.4999999999999
 31
0.0
  0
LINE
  5
55E6
330
A
100
AcDbEntity
  8
0
  6
Continuous
 62
     9
100
AcDbLine
 10
-16.99999999999997
 20
-10.4999999999999
 30
0.0
 11
-15.99999999999997
 21
-10.4999999999999
 31
0.0
  0
LINE
  5
55E7
330
A
100
AcDbEntity
  8
0
  6
Continuous
 62
     7
100
AcDbLine
 10
-16.99999999999997
 20
-10.4999999999999
 30
0.0
 11
-16.99999999999997
 21
80.50000000000009
 31
0.0
  0
LINE
  5
55E8
330
A
100
AcDbEntity
  8
0
  6
Continuous
 62
     7
100
AcDbLine
 10
63.0
 20
9.700000000000088
 30
0.0
 11
63.0
 21
-13.9999999999999
 31
0.0
  0
LINE
  5
55E9
330
A
100
AcDbEntity
  8
0
  6
Continuous
 62
     9
100
AcDbLine
 10
59.00000000000002
 20
-13.9999999999999
 30
0.0
 11
63.0
 21
-13.9999999999999
 31
0.0
  0
LINE
  5
55EA
330
A
100
AcDbEntity
  8
0
  6
Continuous
 62
     7
100
AcDbLine
 10
59.00000000000002
 20
9.700000000000088
 30
0.0
 11
63.0
 21
9.700000000000088
 31
0.0
  0
ARC
  5
55EB
330
A
100
AcDbEntity
  8
0
  6
Continuous
 62
     7
100
AcDbCircle
 10
-12.49999999999997
 20
-10.4999999999999
 30
0.0
 40
4.5
100
AcDbArc
 50
180.0
 51
270.0
  0
LINE
  5
55EC
330
A
100
AcDbEntity
  8
0
  6
Continuous
 62
     9
100
AcDbLine
 10
-12.49999999999997
 20
-14.9999999999999
 30
0.0
 11
-12.49999999999997
 21
-13.9999999999999
 31
0.0
  0
LINE
  5
55ED
330
A
100
AcDbEntity
  8
0
  6
Continuous
 62
     7
100
AcDbLine
 10
59.00000000000002
 20
-14.9999999999999
 30
0.0
 11
-12.49999999999997
 21
-14.9999999999999
 31
0.0
  0
LINE
  5
55EE
330
A
100
AcDbEntity
  8
0
  6
Continuous
 62
     9
100
AcDbLine
 10
59.00000000000002
 20
-14.9999999999999
 30
0.0
 11
59.00000000000002
 21
-13.9999999999999
 31
0.0
  0
LINE
  5
55EF
330
A
100
AcDbEntity
  8
0
  6
Continuous
 62
     7
100
AcDbLine
 10
62.00000000000001
 20
-14.9999999999999
 30
0.0
 11
59.00000000000002
 21
-14.9999999999999
 31
0.0
  0
ARC
  5
55F0
330
A
100
AcDbEntity
  8
0
  6
Continuous
 62
     7
100
AcDbCircle
 10
62.00000000000001
 20
-13.9999999999999
 30
0.0
 40
1.0
100
AcDbArc
 50
270.0
 51
0.0
  0
LINE
  5
55F1
330
A
100
AcDbEntity
  8
0
  6
Continuous
 62
     9
100
AcDbLine
 10
41.75
 20
10.55000000000011
 30
0.0
 11
49.46909200000003
 21
10.55000000000011
 31
0.0
  0
LINE
  5
55F2
330
A
100
AcDbEntity
  8
0
  6
Continuous
 62
     9
100
AcDbLine
 10
49.46909200000003
 20
10.55000000000011
 30
0.0
 11
58.25000000000001
 21
10.55000000000011
 31
0.0
  0
LINE
  5
55F3
330
A
100
AcDbEntity
  8
0
  6
Continuous
 62
     7
100
AcDbLine
 10
42.35000000000002
 20
9.950000000000088
 30
0.0
 11
49.50770300000002
 21
9.950000000000088
 31
0.0
  0
LINE
  5
55F4
330
A
100
AcDbEntity
  8
0
  6
Continuous
 62
     7
100
AcDbLine
 10
49.50770300000002
 20
9.950000000000088
 30
0.0
 11
57.65000000000002
 21
9.950000000000088
 31
0.0
  0
LINE
  5
55F5
330
A
100
AcDbEntity
  8
0
  6
Continuous
 62
     7
100
AcDbLine
 10
45.15000000000003
 20
9.950000000000088
 30
0.0
 11
45.83449200000003
 21
9.950000000000088
 31
0.0
  0
LINE
  5
55F6
330
A
100
AcDbEntity
  8
0
  6
Continuous
 62
     7
100
AcDbLine
 10
45.83449200000003
 20
9.950000000000088
 30
0.0
 11
47.84264900000001
 21
9.950000000000088
 31
0.0
  0
LINE
  5
55F7
330
A
100
AcDbEntity
  8
0
  6
Continuous
 62
     7
100
AcDbLine
 10
47.84264900000001
 20
9.950000000000088
 30
0.0
 11
49.52122000000001
 21
9.950000000000088
 31
0.0
  0
LINE
  5
55F8
330
A
100
AcDbEntity
  8
0
  6
Continuous
 62
     7
100
AcDbLine
 10
49.52122000000001
 20
9.950000000000088
 30
0.0
 11
49.68789000000001
 21
9.950000000000088
 31
0.0
  0
LINE
  5
55F9
330
A
100
AcDbEntity
  8
0
  6
Continuous
 62
     7
100
AcDbLine
 10
50.70099200000003
 20
9.950000000000088
 30
0.0
 11
54.40663000000003
 21
9.950000000000088
 31
0.0
  0
LINE
  5
55FA
330
A
100
AcDbEntity
  8
0
  6
Continuous
 62
     7
100
AcDbLine
 10
54.40663000000003
 20
9.950000000000088
 30
0.0
 11
54.85000000000002
 21
9.950000000000088
 31
0.0
  0
LINE
  5
55FB
330
A
100
AcDbEntity
  8
0
  6
Continuous
 62
     9
100
AcDbLine
 10
51.78790700000003
 20
29.00000000000011
 30
0.0
 11
51.78790700000003
 21
41.00000000000011
 31
0.0
  0
LINE
  5
55FC
330
A
100
AcDbEntity
  8
0
  6
Continuous
 62
     7
100
AcDbLine
 10
51.78790700000003
 20
41.00000000000011
 30
0.0
 11
52.586896
 21
41.00000000000011
 31
0.0
  0
LINE
  5
55FD
330
A
100
AcDbEntity
  8
0
  6
Continuous
 62
     9
100
AcDbLine
 10
52.586896
 20
41.00000000000011
 30
0.0
 11
52.586896
 21
29.00000000000011
 31
0.0
  0
LINE
  5
55FE
330
A
100
AcDbEntity
  8
0
  6
Continuous
 62
     7
100
AcDbLine
 10
52.586896
 20
29.00000000000011
 30
0.0
 11
51.78790700000003
 21
29.00000000000011
 31
0.0
  0
LINE
  5
55FF
330
A
100
AcDbEntity
  8
0
  6
Continuous
 62
     7
100
AcDbLine
 10
58.50430000000001
 20
41.00000000000011
 30
0.0
 11
58.50430000000001
 21
29.00000000000011
 31
0.0
  0
LINE
  5
5600
330
A
100
AcDbEntity
  8
0
  6
Continuous
 62
     7
100
AcDbLine
 10
52.586896
 20
29.00000000000011
 30
0.0
 11
58.50430000000001
 21
29.00000000000011
 31
0.0
  0
LINE
  5
5601
330
A
100
AcDbEntity
  8
0
  6
Continuous
 62
     7
100
AcDbLine
 10
52.586896
 20
41.00000000000011
 30
0.0
 11
58.50430000000001
 21
41.00000000000011
 31
0.0
  0
LINE
  5
5602
330
A
100
AcDbEntity
  8
0
  6
Continuous
 62
     9
100
AcDbLine
 10
47.22448700000001
 20
29.00000000000011
 30
0.0
 11
47.22448700000001
 21
41.00000000000011
 31
0.0
  0
LINE
  5
5603
330
A
100
AcDbEntity
  8
0
  6
Continuous
 62
     9
100
AcDbLine
 10
48.44684400000002
 20
41.00000000000011
 30
0.0
 11
48.44684400000002
 21
29.00000000000011
 31
0.0
  0
LINE
  5
5604
330
A
100
AcDbEntity
  8
0
  6
Continuous
 62
     7
100
AcDbLine
 10
48.44684400000002
 20
29.00000000000011
 30
0.0
 11
47.22448700000001
 21
29.00000000000011
 31
0.0
  0
LINE
  5
5605
330
A
100
AcDbEntity
  8
0
  6
Continuous
 62
     7
100
AcDbLine
 10
47.22448700000001
 20
41.00000000000011
 30
0.0
 11
48.44684400000002
 21
41.00000000000011
 31
0.0
  0
LINE
  5
5606
330
A
100
AcDbEntity
  8
0
  6
Continuous
 62
     7
100
AcDbLine
 10
51.78790700000003
 20
29.00000000000011
 30
0.0
 11
48.44684400000002
 21
29.00000000000011
 31
0.0
  0
LINE
  5
5607
330
A
100
AcDbEntity
  8
0
  6
Continuous
 62
     7
100
AcDbLine
 10
51.78790700000003
 20
41.00000000000011
 30
0.0
 11
48.44684400000002
 21
41.00000000000011
 31
0.0
  0
LINE
  5
5608
330
A
100
AcDbEntity
  8
0
  6
Continuous
 62
     7
100
AcDbLine
 10
36.91000000000004
 20
29.00000000000011
 30
0.0
 11
36.91000000000004
 21
41.00000000000011
 31
0.0
  0
LINE
  5
5609
330
A
100
AcDbEntity
  8
0
  6
Continuous
 62
     7
100
AcDbLine
 10
36.91000000000004
 20
29.00000000000011
 30
0.0
 11
47.22448700000001
 21
29.00000000000011
 31
0.0
  0
LINE
  5
560A
330
A
100
AcDbEntity
  8
0
  6
Continuous
 62
     7
100
AcDbLine
 10
36.91000000000004
 20
41.00000000000011
 30
0.0
 11
47.22448700000001
 21
41.00000000000011
 31
0.0
  0
LINE
  5
560B
330
A
100
AcDbEntity
  8
0
  6
Continuous
 62
     9
100
AcDbLine
 10
36.71455700000004
 20
41.00000000000011
 30
0.0
 11
36.71455700000004
 21
29.00000000000011
 31
0.0
  0
LINE
  5
560C
330
A
100
AcDbEntity
  8
0
  6
Continuous
 62
     7
100
AcDbLine
 10
36.71455700000004
 20
29.00000000000011
 30
0.0
 11
36.91000000000004
 21
29.00000000000011
 31
0.0
  0
LINE
  5
560D
330
A
100
AcDbEntity
  8
0
  6
Continuous
 62
     7
100
AcDbLine
 10
36.71455700000004
 20
41.00000000000011
 30
0.0
 11
36.91000000000004
 21
41.00000000000011
 31
0.0
  0
LINE
  5
560E
330
A
100
AcDbEntity
  8
0
  6
Continuous
 62
     7
100
AcDbLine
 10
36.65380000000003
 20
41.00000000000011
 30
0.0
 11
36.66745600000004
 21
41.00000000000011
 31
0.0
  0
LINE
  5
560F
330
A
100
AcDbEntity
  8
0
  6
Continuous
 62
     7
100
AcDbLine
 10
36.66745600000004
 20
41.00000000000011
 30
0.0
 11
36.68238900000002
 21
41.00000000000011
 31
0.0
  0
LINE
  5
5610
330
A
100
AcDbEntity
  8
0
  6
Continuous
 62
     7
100
AcDbLine
 10
36.68238900000002
 20
41.00000000000011
 30
0.0
 11
36.71455700000004
 21
41.00000000000011
 31
0.0
  0
LINE
  5
5611
330
A
100
AcDbEntity
  8
0
  6
Continuous
 62
     7
100
AcDbLine
 10
36.71455700000004
 20
29.00000000000011
 30
0.0
 11
36.66729100000003
 21
29.00000000000011
 31
0.0
  0
LINE
  5
5612
330
A
100
AcDbEntity
  8
0
  6
Continuous
 62
     7
100
AcDbLine
 10
36.66729100000003
 20
29.00000000000011
 30
0.0
 11
36.65380000000003
 21
29.00000000000011
 31
0.0
  0
ARC
  5
5613
330
A
100
AcDbEntity
  8
0
  6
Continuous
 62
     7
100
AcDbCircle
 10
57.65000000000002
 20
59.4500000000001
 30
0.0
 40
0.6
100
AcDbArc
 50
0.0
 51
90.0
  0
ARC
  5
5614
330
A
100
AcDbEntity
  8
0
  6
Continuous
 62
     7
100
AcDbCircle
 10
42.35000000000002
 20
59.4500000000001
 30
0.0
 40
0.6
100
AcDbArc
 50
90.0
 51
180.0
  0
LINE
  5
5615
330
A
100
AcDbEntity
  8
0
  6
Continuous
 62
     7
100
AcDbLine
 10
58.25000000000001
 20
59.00000000000009
 30
0.0
 11
58.25000000000001
 21
59.4500000000001
 31
0.0
  0
LINE
  5
5616
330
A
100
AcDbEntity
  8
0
  6
Continuous
 62
     7
100
AcDbLine
 10
41.75
 20
59.4500000000001
 30
0.0
 11
41.75
 21
59.00000000000009
 31
0.0
  0
LINE
  5
5617
330
A
100
AcDbEntity
  8
0
  6
Continuous
 62
     7
100
AcDbLine
 10
54.75000000000001
 20
28.90000000000008
 30
0.0
 11
54.70000000000003
 21
28.95000000000008
 31
0.0
  0
LINE
  5
5618
330
A
100
AcDbEntity
  8
0
  6
Continuous
 62
     7
100
AcDbLine
 10
45.30000000000002
 20
28.95000000000008
 30
0.0
 11
45.25000000000001
 21
28.90000000000008
 31
0.0
  0
LINE
  5
5619
330
A
100
AcDbEntity
  8
0
  6
Continuous
 62
     7
100
AcDbLine
 10
45.25000000000001
 20
41.10000000000012
 30
0.0
 11
45.30000000000002
 21
41.05000000000011
 31
0.0
  0
LINE
  5
561A
330
A
100
AcDbEntity
  8
0
  6
Continuous
 62
     7
100
AcDbLine
 10
54.70000000000003
 20
41.05000000000011
 30
0.0
 11
54.75000000000001
 21
41.10000000000012
 31
0.0
  0
LINE
  5
561B
330
A
100
AcDbEntity
  8
0
  6
Continuous
 62
     7
100
AcDbLine
 10
40.0
 20
59.00000000000009
 30
0.0
 11
40.0
 21
41.10000000000012
 31
0.0
  0
LINE
  5
561C
330
A
100
AcDbEntity
  8
0
  6
Continuous
 62
     7
100
AcDbLine
 10
40.0
 20
28.90000000000008
 30
0.0
 11
40.0
 21
11.0000000000001
 31
0.0
  0
LINE
  5
561D
330
A
100
AcDbEntity
  8
0
  6
Continuous
 62
     7
100
AcDbLine
 10
54.00000000000001
 20
9.700000000000088
 30
0.0
 11
54.00000000000001
 21
9.950000000000088
 31
0.0
  0
LINE
  5
561E
330
A
100
AcDbEntity
  8
0
  6
Continuous
 62
     7
100
AcDbLine
 10
54.00000000000001
 20
28.95000000000008
 30
0.0
 11
54.00000000000001
 21
29.00000000000011
 31
0.0
  0
LINE
  5
561F
330
A
100
AcDbEntity
  8
0
  6
Continuous
 62
     7
100
AcDbLine
 10
54.00000000000001
 20
41.00000000000011
 30
0.0
 11
54.00000000000001
 21
41.05000000000011
 31
0.0
  0
LINE
  5
5620
330
A
100
AcDbEntity
  8
0
  6
Continuous
 62
     7
100
AcDbLine
 10
54.00000000000001
 20
60.0500000000001
 30
0.0
 11
54.00000000000001
 21
60.3000000000001
 31
0.0
  0
LINE
  5
5621
330
A
100
AcDbEntity
  8
0
  6
Continuous
 62
     7
100
AcDbLine
 10
46.0
 20
60.3000000000001
 30
0.0
 11
46.0
 21
60.0500000000001
 31
0.0
  0
LINE
  5
5622
330
A
100
AcDbEntity
  8
0
  6
Continuous
 62
     7
100
AcDbLine
 10
46.0
 20
41.05000000000011
 30
0.0
 11
46.0
 21
41.00000000000011
 31
0.0
  0
LINE
  5
5623
330
A
100
AcDbEntity
  8
0
  6
Continuous
 62
     7
100
AcDbLine
 10
46.0
 20
29.00000000000011
 30
0.0
 11
46.0
 21
28.95000000000008
 31
0.0
  0
LINE
  5
5624
330
A
100
AcDbEntity
  8
0
  6
Continuous
 62
     7
100
AcDbLine
 10
46.0
 20
9.950000000000088
 30
0.0
 11
46.0
 21
9.700000000000088
 31
0.0
  0
LINE
  5
5625
330
A
100
AcDbEntity
  8
0
  6
Continuous
 62
     7
100
AcDbLine
 10
41.75
 20
11.0000000000001
 30
0.0
 11
41.75
 21
10.55000000000011
 31
0.0
  0
LINE
  5
5626
330
A
100
AcDbEntity
  8
0
  6
Continuous
 62
     7
100
AcDbLine
 10
58.25000000000001
 20
10.55000000000011
 30
0.0
 11
58.25000000000001
 21
11.0000000000001
 31
0.0
  0
ARC
  5
5627
330
A
100
AcDbEntity
  8
0
  6
Continuous
 62
     7
100
AcDbCircle
 10
42.35000000000002
 20
10.55000000000011
 30
0.0
 40
0.6
100
AcDbArc
 50
180.0
 51
270.0
  0
ARC
  5
5628
330
A
100
AcDbEntity
  8
0
  6
Continuous
 62
     7
100
AcDbCircle
 10
57.65000000000002
 20
10.55000000000011
 30
0.0
 40
0.6
100
AcDbArc
 50
270.0
 51
0.0
  0
LINE
  5
5629
330
A
100
AcDbEntity
  8
0
  6
Continuous
 62
     7
100
AcDbLine
 10
36.65380000000003
 20
41.00000000000011
 30
0.0
 11
36.65380000000003
 21
29.00000000000011
 31
0.0
  0
TEXT
  5
712C
330
A
100
AcDbEntity
  8
0
  6
Continuous
 62
     7
370
     0
100
AcDbText
 10
87.46313613616406
 20
135.0073206442167
 30
0.0
 40
10.0
  1
8630
100
AcDbText
  0
ARC
  5
712D
330
A
100
AcDbEntity
  8
0
  6
Continuous
 62
     7
100
AcDbCircle
 10
144.2247341697838
 20
-115.119806943817
 30
0.0
 40
2.41960431784956
100
AcDbArc
 50
285.7501561263928
 51
301.7241990676029
  0
LINE
  5
712E
330
A
100
AcDbEntity
  8
0
  6
Continuous
 62
     7
100
AcDbLine
 10
145.497037
 20
-117.1778959999999
 30
0.0
 11
145.65115
 21
-117.0671589999999
 31
0.0
  0
LINE
  5
712F
330
A
100
AcDbEntity
  8
0
  6
Continuous
 62
     7
100
AcDbLine
 10
145.65115
 20
-117.0671589999999
 30
0.0
 11
145.77381
 21
-116.9560119999999
 31
0.0
  0
LINE
  5
7130
330
A
100
AcDbEntity
  8
0
  6
Continuous
 62
     7
100
AcDbLine
 10
145.77381
 20
-116.9560119999999
 30
0.0
 11
145.8711810000001
 21
-116.8455299999999
 31
0.0
  0
LINE
  5
7131
330
A
100
AcDbEntity
  8
0
  6
Continuous
 62
     7
100
AcDbLine
 10
145.8711810000001
 20
-116.8455299999999
 30
0.0
 11
145.948723
 21
-116.7350299999998
 31
0.0
  0
LINE
  5
7132
330
A
100
AcDbEntity
  8
0
  6
Continuous
 62
     7
100
AcDbLine
 10
145.948723
 20
-116.7350299999998
 30
0.0
 11
146.0006279999999
 21
-116.6425879999999
 31
0.0
  0
LINE
  5
7133
330
A
100
AcDbEntity
  8
0
  6
Continuous
 62
     7
100
AcDbLine
 10
168.438608
 20
-71.43188399999989
 30
0.0
 11
168.4313499999999
 21
-71.30006599999987
 31
0.0
  0
LINE
  5
7134
330
A
100
AcDbEntity
  8
0
  6
Continuous
 62
     7
100
AcDbLine
 10
168.4313499999999
 20
-71.30006599999987
 30
0.0
 11
168.40601
 21
-71.15356799999992
 31
0.0
  0
LINE
  5
7135
330
A
100
AcDbEntity
  8
0
  6
Continuous
 62
     7
100
AcDbLine
 10
168.40601
 20
-71.15356799999992
 30
0.0
 11
168.3624169999999
 21
-71.0091519999999
 31
0.0
  0
LINE
  5
7136
330
A
100
AcDbEntity
  8
0
  6
Continuous
 62
     7
100
AcDbLine
 10
168.3624169999999
 20
-71.0091519999999
 30
0.0
 11
168.29976
 21
-70.8665239999999
 31
0.0
  0
LINE
  5
7137
330
A
100
AcDbEntity
  8
0
  6
Continuous
 62
     7
100
AcDbLine
 10
168.29976
 20
-70.8665239999999
 30
0.0
 11
168.2160860000001
 21
-70.7249859999999
 31
0.0
  0
LINE
  5
7138
330
A
100
AcDbEntity
  8
0
  6
Continuous
 62
     7
100
AcDbLine
 10
168.2160860000001
 20
-70.7249859999999
 30
0.0
 11
168.107671
 21
-70.58341299999987
 31
0.0
  0
ARC
  5
7139
330
A
100
AcDbEntity
  8
0
  6
Continuous
 62
     7
100
AcDbCircle
 10
166.0684077844668
 20
-72.63893695890837
 30
0.0
 40
2.895474608397234
100
AcDbArc
 50
45.22752515092308
 51
81.98918860724029
  0
LINE
  5
713A
330
A
100
AcDbEntity
  8
0
  6
Continuous
 62
     7
100
AcDbLine
 10
64.52431300000002
 20
11.0000000000001
 30
0.0
 11
64.63869800000001
 21
10.99254900000012
 31
0.0
  0
LINE
  5
713B
330
A
100
AcDbEntity
  8
0
  6
Continuous
 62
     7
100
AcDbLine
 10
64.63869800000001
 20
10.99254900000012
 30
0.0
 11
64.74738400000001
 21
10.9701580000001
 31
0.0
  0
LINE
  5
713C
330
A
100
AcDbEntity
  8
0
  6
Continuous
 62
     7
100
AcDbLine
 10
64.74738400000001
 20
10.9701580000001
 30
0.0
 11
64.84753200000007
 21
10.9327150000001
 31
0.0
  0
LINE
  5
713D
330
A
100
AcDbEntity
  8
0
  6
Continuous
 62
     7
100
AcDbLine
 10
64.84753200000007
 20
10.9327150000001
 30
0.0
 11
64.93841000000005
 21
10.88068200000008
 31
0.0
  0
LINE
  5
713E
330
A
100
AcDbEntity
  8
0
  6
Continuous
 62
     7
100
AcDbLine
 10
64.93841000000005
 20
10.88068200000008
 30
0.0
 11
65.02317400000001
 21
10.81088400000008
 31
0.0
  0
LINE
  5
713F
330
A
100
AcDbEntity
  8
0
  6
Continuous
 62
     7
100
AcDbLine
 10
65.02317400000001
 20
10.81088400000008
 30
0.0
 11
65.10362000000002
 21
10.71627800000009
 31
0.0
  0
LINE
  5
7140
330
A
100
AcDbEntity
  8
0
  6
Continuous
 62
     7
100
AcDbLine
 10
65.10362000000002
 20
10.71627800000009
 30
0.0
 11
65.16780800000001
 21
10.6087670000001
 31
0.0
  0
LINE
  5
7141
330
A
100
AcDbEntity
  8
0
  6
Continuous
 62
     7
100
AcDbLine
 10
65.16780800000001
 20
10.6087670000001
 30
0.0
 11
65.21664200000002
 21
10.49226300000008
 31
0.0
  0
ARC
  5
7142
330
A
100
AcDbEntity
  8
0
  6
Continuous
 62
     7
100
AcDbCircle
 10
63.75508428378153
 20
10.01489423911231
 30
0.0
 40
1.537540858549531
100
AcDbArc
 50
359.4449640914057
 51
18.08788842393093
  0
ARC
  5
7143
330
A
100
AcDbEntity
  8
0
  6
Continuous
 62
     7
100
AcDbCircle
 10
63.80509159010252
 20
59.9791998544158
 30
0.0
 40
1.487606833807569
100
AcDbArc
 50
340.1868997230982
 51
0.8011521350683905
  0
LINE
  5
7144
330
A
100
AcDbEntity
  8
0
  6
Continuous
 62
     7
100
AcDbLine
 10
65.20463700000002
 20
59.47497100000007
 30
0.0
 11
65.15250400000002
 21
59.36200000000011
 31
0.0
  0
LINE
  5
7145
330
A
100
AcDbEntity
  8
0
  6
Continuous
 62
     7
100
AcDbLine
 10
65.15250400000002
 20
59.36200000000011
 30
0.0
 11
65.08407300000003
 21
59.25752400000014
 31
0.0
  0
LINE
  5
7146
330
A
100
AcDbEntity
  8
0
  6
Continuous
 62
     7
100
AcDbLine
 10
65.08407300000003
 20
59.25752400000014
 30
0.0
 11
65.00090600000001
 21
59.1682930000001
 31
0.0
  0
LINE
  5
7147
330
A
100
AcDbEntity
  8
0
  6
Continuous
 62
     7
100
AcDbLine
 10
65.00090600000001
 20
59.1682930000001
 30
0.0
 11
64.91710500000002
 21
59.1053900000001
 31
0.0
  0
LINE
  5
7148
330
A
100
AcDbEntity
  8
0
  6
Continuous
 62
     7
100
AcDbLine
 10
64.91710500000002
 20
59.1053900000001
 30
0.0
 11
64.82247700000002
 21
59.05622500000007
 31
0.0
  0
LINE
  5
7149
330
A
100
AcDbEntity
  8
0
  6
Continuous
 62
     7
100
AcDbLine
 10
64.82247700000002
 20
59.05622500000007
 30
0.0
 11
64.71803000000003
 21
59.02209000000009
 31
0.0
  0
LINE
  5
714A
330
A
100
AcDbEntity
  8
0
  6
Continuous
 62
     7
100
AcDbLine
 10
64.71803000000003
 20
59.02209000000009
 30
0.0
 11
64.60365200000001
 21
59.00352100000008
 31
0.0
  0
LINE
  5
714B
330
A
100
AcDbEntity
  8
0
  6
Continuous
 62
     7
100
AcDbLine
 10
64.60365200000001
 20
59.00352100000008
 30
0.0
 11
64.52431300000002
 21
59.00000000000009
 31
0.0
  0
LINE
  5
7C28
330
A
100
AcDbEntity
  8
0
  6
CENTER
 62
     1
100
AcDbLine
 10
63.0
 20
73.49999999999998
 30
0.0
 11
12.3592070943078
 21
73.49999999999998
 31
0.0
  0
LINE
  5
7C29
330
A
100
AcDbEntity
  8
0
  6
CENTER
 62
     1
100
AcDbLine
 10
-10.0
 20
0.0000000000002132
 30
0.0
 11
-10.0
 21
70.00000000000021
 31
0.0
  0
LINE
  5
7C2A
330
A
100
AcDbEntity
  8
0
  6
CENTER
 62
     1
100
AcDbLine
 10
-15.0
 20
70.00000000000021
 30
0.0
 11
15.0
 21
70.00000000000021
 31
0.0
  0
LINE
  5
7C2B
330
A
100
AcDbEntity
  8
0
  6
CENTER
 62
     1
100
AcDbLine
 10
0.0
 20
55.00000000000023
 30
0.0
 11
0.0
 21
84.99999999999998
 31
0.0
  0
LINE
  5
7C2C
330
A
100
AcDbEntity
  8
0
  6
CENTER
 62
     1
100
AcDbLine
 10
-15.0
 20
0.0000000000002132
 30
0.0
 11
15.0
 21
0.0000000000002132
 31
0.0
  0
LINE
  5
7C2D
330
A
100
AcDbEntity
  8
0
  6
CENTER
 62
     1
100
AcDbLine
 10
0.0
 20
-15.00000000000001
 30
0.0
 11
0.0
 21
15.00000000000001
 31
0.0
  0
ARC
  5
7C2E
330
A
100
AcDbEntity
  8
0
  6
CENTER
 62
     1
100
AcDbCircle
 10
0.0
 20
70.00000000000021
 30
0.0
 40
10.0
100
AcDbArc
 50
34.51810784106721
 51
180.0
  0
ARC
  5
7C2F
330
A
100
AcDbEntity
  8
0
  6
CENTER
 62
     1
100
AcDbCircle
 10
12.3592070943078
 20
78.49999999999998
 30
0.0
 40
5.0
100
AcDbArc
 50
214.5181078410672
 51
270.0
  0
LINE
  5
7C30
330
A
100
AcDbEntity
  8
0
  6
CENTER
 62
     1
100
AcDbLine
 10
63.0
 20
-3.499999999999785
 30
0.0
 11
12.3592070943078
 21
-3.499999999999785
 31
0.0
  0
ARC
  5
7C31
330
A
100
AcDbEntity
  8
0
  6
CENTER
 62
     1
100
AcDbCircle
 10
12.3592070943078
 20
-8.499999999999786
 30
0.0
 40
5.0
100
AcDbArc
 50
90.0
 51
145.4818921589328
  0
ARC
  5
7C32
330
A
100
AcDbEntity
  8
0
  6
CENTER
 62
     1
100
AcDbCircle
 10
0.0
 20
0.0000000000002132
 30
0.0
 40
10.0
100
AcDbArc
 50
180.0
 51
325.4818921589328
  0
ENDSEC
  0
SECTION
  2
OBJECTS
  0
DICTIONARY
  5
19
330
0
100
AcDbDictionary
281
     1
  3
ACAD_COLOR
350
3988
  3
ACAD_GROUP
350
1A
  3
ACAD_LAYOUT
350
1E
  3
ACAD_MATERIAL
350
395E
  3
ACAD_MLEADERSTYLE
350
39AD
  3
ACAD_MLINESTYLE
350
1B
  3
ACAD_PLOTSETTINGS
350
22
  3
ACAD_PLOTSTYLENAME
350
1F
  3
ACAD_SCALELIST
350
398B
  3
ACAD_TABLESTYLE
350
3989
  3
ACAD_VISUALSTYLE
350
3977
  3
ACAD_WIPEOUT_VARS
350
23
  3
ACDB_RECOMPOSE_DATA
350
72EC
  3
AcDbVariableDictionary
350
72CB
  3
ASE_INDEX_DICTIONARY
350
72C6
  3
DWGPROPS
350
7CAC
  0
DICTIONARY
  5
72C9
330
14
100
AcDbDictionary
280
     1
281
     1
  3
ADSK_XREC_LAYER_RECONCILED
360
72CA
  0
DICTIONARY
  5
39B7
330
A
100
AcDbDictionary
280
     1
281
     1
  3
ACAD_SORTENTS
360
39B8
  0
DICTIONARY
  5
3988
102
{ACAD_REACTORS
330
19
102
}
330
19
100
AcDbDictionary
281
     1
  0
DICTIONARY
  5
1A
102
{ACAD_REACTORS
330
19
102
}
330
19
100
AcDbDictionary
281
     1
  0
DICTIONARY
  5
1E
102
{ACAD_REACTORS
330
19
102
}
330
19
100
AcDbDictionary
281
     1
  3
Layout1
350
21
  3
Model
350
20
  0
DICTIONARY
  5
395E
102
{ACAD_REACTORS
330
19
102
}
330
19
100
AcDbDictionary
281
     1
  3
ByBlock
350
3967
  3
ByLayer
350
395F
  3
Global
350
396F
  0
DICTIONARY
  5
39AD
102
{ACAD_REACTORS
330
19
102
}
330
19
100
AcDbDictionary
281
     1
  3
Standard
350
39AE
  0
DICTIONARY
  5
1B
102
{ACAD_REACTORS
330
19
102
}
330
19
100
AcDbDictionary
281
     1
  3
Standard
350
1C
  0
DICTIONARY
  5
22
102
{ACAD_REACTORS
330
19
102
}
330
19
100
AcDbDictionary
281
     1
  0
ACDBDICTIONARYWDFLT
  5
1F
102
{ACAD_REACTORS
330
19
102
}
330
19
100
AcDbDictionary
281
     1
  3
Normal
350
1D
100
AcDbDictionaryWithDefault
340
1D
  0
DICTIONARY
  5
398B
102
{ACAD_REACTORS
330
19
102
}
330
19
100
AcDbDictionary
281
     1
  3
A0
350
398C
  3
A1
350
398D
  3
A2
350
398E
  3
A3
350
398F
  3
A4
350
3990
  3
A5
350
3991
  3
A6
350
3992
  3
A7
350
3993
  3
A8
350
3994
  3
A9
350
3995
  3
B0
350
3996
  3
B1
350
3997
  3
B2
350
3998
  3
B3
350
3999
  3
B4
350
399A
  3
B5
350
399B
  3
B6
350
399C
  3
B7
350
399D
  3
B8
350
399E
  3
B9
350
399F
  3
C0
350
39A0
  3
C1
350
39A1
  3
C2
350
39A2
  3
C3
350
39A3
  3
C4
350
39A4
  3
C5
350
39A5
  3
C6
350
39A6
  3
C7
350
39A7
  3
C8
350
39A8
  3
C9
350
39A9
  3
D0
350
39AA
  3
D1
350
39AB
  3
D2
350
39AC
  0
DICTIONARY
  5
3989
102
{ACAD_REACTORS
330
19
102
}
330
19
100
AcDbDictionary
281
     1
  3
Standard
350
398A
  0
DICTIONARY
  5
3977
102
{ACAD_REACTORS
330
19
102
}
330
19
100
AcDbDictionary
281
     1
  3
2dWireframe
350
397D
  3
3D Hidden
350
397F
  3
3dWireframe
350
397E
  3
Basic
350
397C
  3
Brighten
350
3983
  3
ColorChange
350
3987
  3
Conceptual
350
3980
  3
Dim
350
3982
  3
Facepattern
350
3986
  3
Flat
350
3978
  3
FlatWithEdges
350
3979
  3
Gouraud
350
397A
  3
GouraudWithEdges
350
397B
  3
Linepattern
350
3985
  3
Realistic
350
3981
  3
Thicken
350
3984
  0
WIPEOUTVARIABLES
  5
23
330
19
100
AcDbWipeoutVariables
 70
     1
  0
XRECORD
  5
72EC
102
{ACAD_REACTORS
330
19
102
}
330
19
100
AcDbXrecord
280
     1
 90
        1
330
398A
  0
DICTIONARY
  5
72CB
102
{ACAD_REACTORS
330
19
102
}
330
19
100
AcDbDictionary
281
     1
  3
CANNOSCALE
350
72CE
  3
CMLEADERSTYLE
350
72CD
  3
CTABLESTYLE
350
72CC
  3
DIMASSOC
350
72D1
  3
INDEXCTL
350
72D0
  3
SORTENTS
350
72CF
  0
DICTIONARY
  5
72C6
102
{ACAD_REACTORS
330
19
102
}
330
19
100
AcDbDictionary
281
     1
  3
ASEBlockHierarchyIndexRecord
350
72C8
1001
DCO15
1040
1687090590.691
  0
XRECORD
  5
7CAC
102
{ACAD_REACTORS
330
19
102
}
330
19
100
AcDbXrecord
280
     1
  1
DWGPROPS COOKIE
  2

  3

  4

  6

  7

  8
renzo.ceresoli
  9

300
=
301
=
302
=
303
=
304
=
305
=
306
=
307
=
308
=
309
=
 40
0.135535625
 41
2455329.702198484
 42
2455383.390814838
  1

 90
        0
  0
XRECORD
  5
72CA
102
{ACAD_REACTORS
330
72C9
102
}
330
72C9
100
AcDbXrecord
280
     1
290
     1
  0
SORTENTSTABLE
  5
39B8
102
{ACAD_REACTORS
330
39B7
102
}
330
39B7
100
AcDbSortentsTable
330
A
331
537B
  5
5523
331
528F
  5
55E1
331
52C6
  5
5618
331
1F99
  5
56A3
331
5624
  5
5319
331
54F3
  5
538A
331
552A
  5
53C1
331
543E
  5
545A
331
547D
  5
5499
331
55ED
  5
52E2
331
53C8
  5
54BC
331
5407
  5
5423
331
54B4
  5
534B
331
5569
  5
5400
331
5250
  5
558C
331
5305
  5
5657
331
530D
  5
565F
331
5258
  5
5594
331
5297
  5
55E9
331
1FA1
  5
56AB
331
54BC
  5
5353
331
5446
  5
5462
331
5532
  5
53C9
331
52CE
  5
5620
331
5383
  5
552B
331
538B
  5
5533
331
52D6
  5
5628
331
5315
  5
5667
331
5260
  5
559C
331
529F
  5
55F1
331
534C
  5
568D
331
5354
  5
54FC
331
52DE
  5
5630
331
5391
  5
5539
331
53D0
  5
54C4
331
553A
  5
53D1
331
55F5
  5
52EA
331
54C4
  5
535B
331
54FB
  5
5392
331
540F
  5
542B
331
5577
  5
540E
331
544E
  5
546A
331
5399
  5
5541
331
53D8
  5
54CC
331
5485
  5
54A1
331
5542
  5
53D9
331
5268
  5
55A4
331
55C6
  5
52BB
331
548D
  5
54A9
331
55FD
  5
52F2
331
54CC
  5
5363
331
53E0
  5
54D4
331
5417
  5
5433
331
557F
  5
5416
331
53A1
  5
5549
331
5456
  5
5472
331
5503
  5
539A
331
535C
  5
5504
331
52A7
  5
55F9
331
52E6
  5
5638
331
550B
  5
53A2
331
554A
  5
53E1
331
5231
  5
556D
331
545E
  5
547A
331
55CE
  5
52C3
331
5495
  5
54B1
331
5605
  5
52FA
331
54D4
  5
536B
331
5270
  5
55C2
331
53A9
  5
5551
331
53E8
  5
54DC
331
541F
  5
543B
331
5587
  5
5292
331
531D
  5
566F
331
5364
  5
550C
331
5278
  5
55CA
331
52AF
  5
5601
331
54DC
  5
5373
331
5513
  5
53AA
331
5552
  5
53E9
331
5239
  5
5575
331
52EE
  5
5640
331
558F
  5
529A
331
5466
  5
5482
331
55D6
  5
52CB
331
549D
  5
5323
331
560D
  5
5302
331
5427
  5
5443
331
52F6
  5
5648
331
532D
  5
5676
331
5280
  5
55D2
331
52B7
  5
5609
331
536C
  5
5514
331
1F8A
  5
5694
331
5241
  5
557D
331
52FE
  5
5650
331
5335
  5
567E
331
52BF
  5
5611
331
5374
  5
551C
331
53B1
  5
5559
331
53F0
  5
54E4
331
5615
  5
530A
331
54E4
  5
537B
331
551B
  5
53B2
331
542F
  5
544B
331
5597
  5
52A2
331
546E
  5
548A
331
55DE
  5
52D3
331
53B9
  5
5561
331
53F8
  5
54EC
331
54A5
  5
5334
331
555A
  5
53F1
331
5249
  5
5585
331
5288
  5
55DA
331
5562
  5
53F9
331
54AD
  5
533C
331
561D
  5
5312
331
54EC
  5
5383
331
5523
  5
53BA
331
1F92
  5
569C
331
5400
  5
54F4
331
5437
  5
5453
331
559F
  5
52AA
331
53C1
  5
54B5
331
5476
  5
5492
331
55E6
  5
52DB
331
537C
  5
5524
331
52C7
  5
5619
331
5306
  5
5658
331
1F9A
  5
56A4
331
552B
  5
53C2
331
556A
  5
5401
331
5251
  5
558D
331
547E
  5
549A
331
55EE
  5
52E3
331
54B5
  5
534C
331
5625
  5
531A
331
543F
  5
545B
331
54F4
  5
538B
331
5290
  5
55E2
331
53C9
  5
54BD
331
5345
  5
5686
331
5384
  5
552C
331
5298
  5
55EA
331
52CF
  5
5621
331
5533
  5
53CA
331
1FA2
  5
56AC
331
54BD
  5
5354
331
5259
  5
5595
331
530E
  5
5660
331
5447
  5
5463
331
534D
  5
54F5
331
538C
  5
5534
331
52D7
  5
5629
331
5261
  5
559D
331
5316
  5
5668
331
5355
  5
54FD
331
52DF
  5
5631
331
53D1
  5
54C5
331
5408
  5
5424
331
5570
  5
5407
331
5392
  5
553A
331
54FC
  5
5393
331
553B
  5
53D2
331
544F
  5
546B
331
55BF
  5
52B4
331
5486
  5
54A2
331
55F6
  5
52EB
331
54C5
  5
535C
331
539A
  5
5542
331
53D9
  5
54CD
331
5410
  5
542C
331
5578
  5
540F
331
5269
  5
55A5
331
52A0
  5
55F2
331
54CD
  5
5364
331
5504
  5
539B
331
5543
  5
53DA
331
5418
  5
5434
331
5580
  5
5417
331
5457
  5
5473
331
55C7
  5
52BC
331
53A2
  5
554A
331
53E1
  5
54D5
331
548E
  5
54AA
331
55FE
  5
52F3
331
52E7
  5
5639
331
531E
  5
5670
331
554B
  5
53E2
331
5232
  5
556E
331
5271
  5
55C3
331
5606
  5
52FB
331
54D5
  5
536C
331
550C
  5
53A3
331
52A8
  5
55FA
331
535D
  5
5505
331
5420
  5
543C
331
5588
  5
5293
331
545F
  5
547B
331
55CF
  5
52C4
331
53AA
  5
5552
331
53E9
  5
54DD
331
5496
  5
54B2
331
5365
  5
550D
331
52EF
  5
5641
331
5553
  5
53EA
331
523A
  5
5576
331
5279
  5
55CB
331
55D7
  5
52CC
331
549E
  5
532D
331
560E
  5
5303
331
54DD
  5
5374
331
5467
  5
5483
331
5514
  5
53AB
331
52B0
  5
5602
331
536D
  5
5515
331
52B8
  5
560A
331
52F7
  5
5649
331
1F8B
  5
5695
331
5242
  5
557E
331
5281
  5
55D3
331
532E
  5
5677
331
5336
  5
567F
331
5375
  5
551D
331
52FF
  5
5651
331
53F1
  5
54E5
331
5428
  5
5444
331
5590
  5
529B
331
53B2
  5
555A
331
551C
  5
53B3
331
555B
  5
53F2
331
546F
  5
548B
331
55DF
  5
52D4
331
54A6
  5
5335
331
5616
  5
530B
331
54E5
  5
537C
331
53BA
  5
5562
331
53F9
  5
54ED
331
5430
  5
544C
331
5598
  5
52A3
331
5289
  5
55DB
331
52C0
  5
5612
331
1F93
  5
569D
331
54ED
  5
5384
331
5524
  5
53BB
331
5563
  5
53FA
331
524A
  5
5586
331
55A0
  5
52AB
331
5477
  5
5493
331
55E7
  5
52DC
331
54AE
  5
5345
331
561E
  5
5313
331
53C2
  5
54B6
331
5401
  5
541D
331
5438
  5
5454
331
5307
  5
5659
331
5291
  5
55E3
331
52C8
  5
561A
331
537D
  5
5525
331
1F9B
  5
56A5
331
5626
  5
531B
331
54F5
  5
538C
331
552C
  5
53C3
331
5440
  5
545C
331
53CA
  5
54BE
331
547F
  5
549B
331
55EF
  5
52E4
331
54B6
  5
534D
331
556B
  5
5402
331
5252
  5
558E
331
530F
  5
5661
331
5346
  5
5687
331
525A
  5
5596
331
5299
  5
55EB
331
54BE
  5
5355
331
5534
  5
53CB
331
1FA3
  5
56AD
331
52D0
  5
5622
331
5385
  5
552D
331
538D
  5
5535
331
52D8
  5
562A
331
5262
  5
559E
331
5317
  5
5669
331
534E
  5
54F6
331
5356
  5
54FE
331
5409
  5
5425
331
5571
  5
5408
331
5448
  5
5464
331
5393
  5
553B
331
53D2
  5
54C6
331
553C
  5
53D3
331
5487
  5
54A3
331
55F7
  5
52EC
331
54C6
  5
535D
331
54FD
  5
5394
331
5411
  5
542D
331
5579
  5
5410
331
5450
  5
546C
331
55C0
  5
52B5
331
539B
  5
5543
331
53DA
  5
54CE
331
52A1
  5
55F3
331
52E0
  5
5632
331
5544
  5
53DB
331
526A
  5
55B1
331
55C8
  5
52BD
331
548F
  5
54AB
331
55FF
  5
52F4
331
54CE
  5
5365
331
53E2
  5
54D6
331
5419
  5
5435
331
5581
  5
5418
331
53A3
  5
554B
331
5458
  5
5474
331
5505
  5
539C
331
535E
  5
5506
331
52A9
  5
55FB
331
52E8
  5
563A
331
550D
  5
53A4
331
554C
  5
53E3
331
5233
  5
556F
331
5460
  5
547C
331
55D0
  5
52C5
331
5497
  5
54B3
331
5607
  5
52FC
331
54D6
  5
536D
331
5272
  5
55C4
331
53AB
  5
5553
331
53EA
  5
54DE
331
5421
  5
543D
331
5589
  5
5294
331
531F
  5
5671
331
5366
  5
550E
331
527A
  5
55CC
331
52B1
  5
5603
331
54DE
  5
5375
331
5515
  5
53AC
331
5554
  5
53EB
331
523B
  5
5577
331
52F0
  5
5642
331
549F
  5
532E
331
560F
  5
5304
331
52F8
  5
564A
331
532F
  5
5678
331
5243
  5
557F
331
5282
  5
55D4
331
1F8C
  5
5696
331
52B9
  5
560B
331
536E
  5
5516
331
5376
  5
551E
331
5337
  5
5680
331
5429
  5
5445
331
5591
  5
529C
331
5468
  5
5484
331
55D8
  5
52CD
331
53B3
  5
555B
331
53F2
  5
54E6
331
555C
  5
53F3
331
5617
  5
530C
331
54E6
  5
537D
331
551D
  5
53B4
331
5431
  5
544D
331
5599
  5
52A4
331
5470
  5
548C
331
55E0
  5
52D5
331
53BB
  5
5563
331
53FA
  5
54EE
331
54A7
  5
5336
331
5300
  5
5652
331
524B
  5
5587
331
528A
  5
55DC
331
5564
  5
53FB
331
55E8
  5
52DD
331
54AF
  5
5346
331
561F
  5
5314
331
54EE
  5
5385
331
5402
  5
541E
331
5439
  5
5455
331
55A1
  5
52AC
331
53C3
  5
54B7
331
5478
  5
5494
331
5525
  5
53BC
331
1F94
  5
569E
331
52C1
  5
5613
331
537E
  5
5526
331
52C9
  5
561B
331
5308
  5
565A
331
1F9C
  5
56A6
331
552D
  5
53C4
331
556C
  5
5403
331
5253
  5
558F
331
54B7
  5
534E
331
5627
  5
531C
331
54F6
  5
538D
331
5292
  5
55E4
331
53CB
  5
54BF
331
5441
  5
545D
331
55B1
  5
52B1
331
5347
  5
5688
331
5386
  5
552E
331
529A
  5
55EC
331
52D1
  5
5623
331
5535
  5
53CC
331
1FA4
  5
56AE
331
54BF
  5
5356
331
525B
  5
5597
331
5310
  5
5662
331
534F
  5
54F7
331
52D9
  5
562B
331
538E
  5
5536
331
5263
  5
559F
331
5357
  5
54FF
331
5480
  5
549C
331
55F0
  5
52E5
331
53D3
  5
54C7
331
540A
  5
5426
331
5572
  5
5409
331
5394
  5
553C
331
5449
  5
5465
331
54FE
  5
5395
331
553D
  5
53D4
331
557A
  5
5411
331
5451
  5
546D
331
55C1
  5
52B6
331
5488
  5
54A4
331
55F8
  5
52ED
331
539C
  5
5544
331
53DB
  5
54CF
331
5412
  5
542E
331
54C7
  5
535E
331
5318
  5
566A
331
526B
  5
55B2
331
52A2
  5
55F4
331
54CF
  5
5366
331
5506
  5
539D
331
5545
  5
53DC
331
52E1
  5
5633
331
541A
  5
5436
331
5582
  5
5419
331
5459
  5
5475
331
55C9
  5
52BE
331
53A4
  5
554C
331
53E3
  5
54D7
331
5490
  5
54AC
331
5600
  5
52F5
331
52E9
  5
563B
331
5320
  5
5672
331
554D
  5
53E4
331
5234
  5
5570
331
5273
  5
55C5
331
5498
  5
54B4
331
5608
  5
52FD
331
54D7
  5
536E
331
550E
  5
53A5
331
52AA
  5
55FC
331
5422
  5
543E
331
558A
  5
5295
331
5461
  5
547D
331
55D1
  5
52C6
331
535F
  5
5507
331
53AC
  5
5554
331
53EB
  5
54DF
331
5367
  5
550F
331
52B2
  5
5604
331
52F1
  5
5643
331
5555
  5
53EC
331
523C
  5
5578
331
527B
  5
55CD
331
54DF
  5
5376
331
5516
  5
53AD
331
536F
  5
5517
331
52BA
  5
560C
331
52F9
  5
564B
331
1F8D
  5
5697
331
5244
  5
5580
331
5283
  5
55D5
331
5330
  5
5679
331
5377
  5
551F
331
55D9
  5
52CE
331
54A0
  5
532F
331
5610
  5
5305
331
53F3
  5
54E7
331
542A
  5
5446
331
5592
  5
529D
331
53B4
  5
555C
331
5469
  5
5485
331
551E
  5
53B5
331
555D
  5
53F4
331
5471
  5
548D
331
55E1
  5
52D6
331
54A8
  5
5337
331
5618
  5
530D
331
54E7
  5
537E
331
53BC
  5
5564
331
53FB
  5
54EF
331
5432
  5
544E
331
559A
  5
52A5
331
5338
  5
5681
331
528B
  5
55DD
331
52C2
  5
5614
331
1F95
  5
569F
331
54EF
  5
5386
331
5526
  5
53BD
331
5565
  5
53FC
331
524C
  5
5588
331
5301
  5
5653
331
543A
  5
5456
331
55A2
  5
52AD
331
5479
  5
5495
331
55E9
  5
52DE
331
53C4
  5
54B8
331
5403
  5
541F
331
54B0
  5
5347
331
5620
  5
5315
331
5309
  5
565B
331
5254
  5
5590
331
5293
  5
55E5
331
556D
  5
5404
331
5628
  5
531D
331
54F7
  5
538E
331
552E
  5
53C5
331
1F9D
  5
56A7
331
52CA
  5
561C
331
537F
  5
5527
331
5442
  5
545E
331
55B2
  5
52B2
331
53CC
  5
54C0
331
54B8
  5
534F
331
5387
  5
552F
331
5311
  5
5663
331
5348
  5
5689
331
525C
  5
5598
331
529B
  5
55ED
331
5536
  5
53CD
331
1FA5
  5
56AF
331
52D2
  5
5624
331
538F
  5
5537
331
52DA
  5
562C
331
5264
  5
55A0
331
5350
  5
54F8
331
55F1
  5
52E6
331
54C0
  5
5357
331
540B
  5
5427
331
5573
  5
540A
331
544A
  5
5466
331
5395
  5
553D
331
53D4
  5
54C8
331
5481
  5
549D
331
553E
  5
53D5
331
5489
  5
54A5
331
55F9
  5
52EE
331
54C8
  5
535F
331
54FF
  5
5396
331
53DC
  5
54D0
331
5413
  5
542F
331
557B
  5
5412
331
539D
  5
5545
331
5452
  5
546E
331
55C2
  5
52B7
331
5358
  5
5500
331
52A3
  5
55F5
331
52E2
  5
5634
331
5507
  5
539E
331
5546
  5
53DD
331
522D
  5
5569
331
55CA
  5
52BF
331
5491
  5
54AD
331
5601
  5
52F6
331
54D0
  5
5367
331
526C
  5
55B3
331
5319
  5
566B
331
53E4
  5
54D8
331
541B
  5
5437
331
5583
  5
541A
331
53A5
  5
554D
331
545A
  5
5476
331
5321
  5
5673
331
5360
  5
5508
331
52AB
  5
55FD
331
52EA
  5
563C
331
550F
  5
53A6
331
554E
  5
53E5
331
5235
  5
5571
331
558B
  5
5296
331
5462
  5
547E
331
55D2
  5
52C7
331
5499
  5
531F
331
5609
  5
52FE
331
53AD
  5
5555
331
53EC
  5
54E0
331
5423
  5
543F
331
54D8
  5
536F
331
5274
  5
55C6
331
5368
  5
5510
331
527C
  5
55CE
331
52B3
  5
5605
331
5517
  5
53AE
331
5556
  5
53ED
331
523D
  5
5579
331
52F2
  5
5644
331
52FA
  5
564C
331
5331
  5
567A
331
5245
  5
5581
331
5284
  5
55D6
331
1F8E
  5
5698
331
52BB
  5
560D
331
5370
  5
5518
331
54E0
  5
5377
331
542B
  5
5447
331
5593
  5
529E
331
546A
  5
5486
331
55DA
  5
52CF
331
53B5
  5
555D
331
53F4
  5
54E8
331
54A1
  5
5330
331
5611
  5
5306
331
555E
  5
53F5
331
54A9
  5
5338
331
5619
  5
530E
331
54E8
  5
537F
331
551F
  5
53B6
331
5433
  5
544F
331
559B
  5
52A6
331
5472
  5
548E
331
55E2
  5
52D7
331
53BD
  5
5565
331
53FC
  5
54F0
331
5378
  5
5520
331
52C3
  5
5615
331
5302
  5
5654
331
524D
  5
5589
331
528C
  5
55DE
331
5339
  5
5682
331
5566
  5
53FD
331
55EA
  5
52DF
331
54B1
  5
5348
331
5621
  5
5316
331
54F0
  5
5387
331
5404
  5
5420
331
543B
  5
5457
331
55A3
  5
52AE
331
53C5
  5
54B9
331
547A
  5
5496
331
5527
  5
53BE
331
1F96
  5
56A0
331
5380
  5
5528
331
52CB
  5
561D
331
530A
  5
565C
331
1F9E
  5
56A8
331
552F
  5
53C6
331
556E
  5
5405
331
5255
  5
5591
331
54B9
  5
5350
331
5629
  5
531E
331
53CD
  5
54C1
331
5443
  5
545F
331
5294
  5
55E6
331
5349
  5
568A
331
5388
  5
5530
331
529C
  5
55EE
331
52D3
  5
5625
331
5537
  5
53CE
331
1FA6
  5
56B0
331
525D
  5
5599
331
5312
  5
5664
331
5351
  5
54F9
331
5265
  5
55A1
331
52DB
  5
562D
331
54F8
  5
538F
331
544B
  5
5467
331
5482
  5
549E
331
55F2
  5
52E7
331
54C1
  5
5358
331
53D5
  5
54C9
331
540C
  5
5428
331
5574
  5
540B
331
5396
  5
553E
331
5500
  5
5397
331
553F
  5
53D6
331
557C
  5
5413
331
5453
  5
546F
331
55C3
  5
52B8
331
548A
  5
54A6
331
55FA
  5
52EF
331
539E
  5
5546
331
53DD
  5
54D1
331
5414
  5
5430
331
54C9
  5
5360
331
531A
  5
566C
331
5359
  5
5501
331
526D
  5
55BF
331
52A4
  5
55F6
331
5602
  5
52F7
331
54D1
  5
5368
331
5508
  5
539F
331
541C
  5
5438
331
5584
  5
541B
331
545B
  5
5477
331
55CB
  5
52C0
331
53A6
  5
554E
331
53E5
  5
54D9
331
5492
  5
54AE
331
5547
  5
53DE
331
522E
  5
556A
331
52E3
  5
5635
331
52EB
  5
563D
331
5322
  5
5674
331
554F
  5
53E6
331
5236
  5
5572
331
5275
  5
55C7
331
549A
  5
5320
331
560A
  5
52FF
331
54D9
  5
5370
331
5510
  5
53A7
331
52AC
  5
55FE
331
53ED
  5
54E1
331
5424
  5
5440
331
558C
  5
5297
331
53AE
  5
5556
331
5463
  5
547F
331
55D3
  5
52C8
331
5361
  5
5509
331
5369
  5
5511
331
52B4
  5
5606
331
52F3
  5
5645
331
5557
  5
53EE
331
523E
  5
557A
331
527D
  5
55CF
331
5332
  5
567B
331
5371
  5
5519
331
52BC
  5
560E
331
52FB
  5
564D
331
1F8F
  5
5699
331
5246
  5
5582
331
5285
  5
55D7
331
5518
  5
53AF
331
55DB
  5
52D0
331
54A2
  5
5331
331
5612
  5
5307
331
54E1
  5
5378
331
53F5
  5
54E9
331
542C
  5
5448
331
5594
  5
529F
331
53B6
  5
555E
331
546B
  5
5487
331
5520
  5
53B7
331
555F
  5
53F6
331
559C
  5
52A7
331
5473
  5
548F
331
55E3
  5
52D8
331
54AA
  5
5339
331
561A
  5
530F
331
53BE
  5
5566
331
53FD
  5
54F1
331
5434
  5
5450
331
54E9
  5
5380
331
533A
  5
5683
331
5379
  5
5521
331
528D
  5
55DF
331
52C4
  5
5616
331
1F97
  5
56A1
331
54F1
  5
5388
331
5528
  5
53BF
331
5567
  5
53FE
331
524E
  5
558A
331
5303
  5
5655
331
543C
  5
5458
331
55A4
  5
52AF
331
547B
  5
5497
331
55EB
  5
52E0
331
53C6
  5
54BA
331
5405
  5
5421
331
54B2
  5
5349
331
5622
  5
5317
331
530B
  5
565D
331
5256
  5
5592
331
5295
  5
55E7
331
556F
  5
5406
331
54BA
  5
5351
331
5444
  5
5460
331
53CE
  5
54C2
331
5530
  5
53C7
331
1F9F
  5
56A9
331
52CC
  5
561E
331
5381
  5
5529
331
5389
  5
5531
331
52D4
  5
5626
331
5313
  5
5665
331
525E
  5
559A
331
529D
  5
55EF
331
534A
  5
568B
331
1FA7
  5
56B1
331
52DC
  5
562E
331
5266
  5
55A2
331
5352
  5
54FA
331
55F3
  5
52E8
331
54C2
  5
5359
331
54F9
  5
5390
331
540D
  5
5429
331
5575
  5
540C
331
544C
  5
5468
331
5397
  5
553F
331
53D6
  5
54CA
331
5483
  5
549F
331
5538
  5
53CF
331
5540
  5
53D7
331
548B
  5
54A7
331
55FB
  5
52F0
331
54CA
  5
5361
331
5501
  5
5398
331
53DE
  5
54D2
331
5415
  5
5431
331
557D
  5
5414
331
539F
  5
5547
331
5454
  5
5470
331
55C4
  5
52B9
331
535A
  5
5502
331
52A5
  5
55F7
331
52E4
  5
5636
331
5509
  5
53A0
331
5548
  5
53DF
331
522F
  5
556B
331
545C
  5
5478
331
55CC
  5
52C1
331
5493
  5
54AF
331
5603
  5
52F8
331
54D2
  5
5369
331
526E
  5
55C0
331
53E6
  5
54DA
331
541D
  5
5439
331
5585
  5
541C
331
531B
  5
566D
331
53A7
  5
554F
331
5362
  5
550A
331
5276
  5
55C8
331
52AD
  5
55FF
331
5511
  5
53A8
331
5550
  5
53E7
331
5237
  5
5573
331
52EC
  5
563E
331
558D
  5
5298
331
5464
  5
5480
331
55D4
  5
52C9
331
549B
  5
5321
331
560B
  5
5300
331
53AF
  5
5557
331
53EE
  5
54E2
331
5425
  5
5441
331
54DA
  5
5371
331
536A
  5
5512
331
527E
  5
55D0
331
52B5
  5
5607
331
1F88
  5
5692
331
523F
  5
557B
331
52F4
  5
5646
331
52FC
  5
564E
331
5333
  5
567C
331
5247
  5
5583
331
5286
  5
55D8
331
52BD
  5
560F
331
5372
  5
551A
331
5613
  5
5308
331
54E2
  5
5379
331
5519
  5
53B0
331
542D
  5
5449
331
5595
  5
52A0
331
546C
  5
5488
331
55DC
  5
52D1
331
53B7
  5
555F
331
53F6
  5
54EA
331
54A3
  5
5332
331
5558
  5
53EF
331
5560
  5
53F7
331
54AB
  5
533A
331
561B
  5
5310
331
54EA
  5
5381
331
5521
  5
53B8
331
1F90
  5
569A
331
53FE
  5
54F2
331
5435
  5
5451
331
559D
  5
52A8
331
53BF
  5
5567
331
5474
  5
5490
331
55E4
  5
52D9
331
537A
  5
5522
331
52C5
  5
5617
331
5304
  5
5656
331
1F98
  5
56A2
331
5529
  5
53C0
331
5568
  5
53FF
331
524F
  5
558B
331
55EC
  5
52E1
331
54B3
  5
534A
331
5623
  5
5318
331
54F2
  5
5389
331
528E
  5
55E0
331
533B
  5
5684
331
5406
  5
5422
331
543D
  5
5459
331
53C7
  5
54BB
331
547C
  5
5498
331
5382
  5
552A
331
52CD
  5
561F
331
530C
  5
565E
331
5531
  5
53C8
331
1FA0
  5
56AA
331
54BB
  5
5352
331
5257
  5
5593
331
53CF
  5
54C3
331
5445
  5
5461
331
5296
  5
55E8
331
534B
  5
568C
331
538A
  5
5532
331
529E
  5
55F0
331
52D5
  5
5627
331
525F
  5
559B
331
5314
  5
5666
331
5353
  5
54FB
331
5267
  5
55A3
331
52DD
  5
562F
331
5390
  5
5538
331
54FA
  5
5391
331
5539
  5
53D0
331
544D
  5
5469
331
5484
  5
54A0
331
55F4
  5
52E9
331
54C3
  5
535A
331
5398
  5
5540
331
53D7
  5
54CB
331
540E
  5
542A
331
5576
  5
540D
331
54CB
  5
5362
331
5502
  5
5399
331
5541
  5
53D8
331
557E
  5
5415
331
5455
  5
5471
331
55C5
  5
52BA
331
548C
  5
54A8
331
55FC
  5
52F1
331
53A0
  5
5548
331
53DF
  5
54D3
331
5416
  5
5432
331
52E5
  5
5637
331
531C
  5
566E
331
526F
  5
55C1
331
52A6
  5
55F8
331
535B
  5
5503
331
5604
  5
52F9
331
54D3
  5
536A
331
550A
  5
53A1
331
541E
  5
543A
331
5586
  5
5291
331
545D
  5
5479
331
55CD
  5
52C2
331
53A8
  5
5550
331
53E7
  5
54DB
331
5494
  5
54B0
331
5549
  5
53E0
331
5230
  5
556C
331
52ED
  5
563F
331
5551
  5
53E8
331
5238
  5
5574
331
5277
  5
55C9
331
549C
  5
5322
331
560C
  5
5301
331
54DB
  5
5372
331
5512
  5
53A9
331
52AE
  5
5600
331
53EF
  5
54E3
331
5426
  5
5442
331
558E
  5
5299
331
5465
  5
5481
331
55D5
  5
52CA
331
5363
  5
550B
331
536B
  5
5513
331
52B6
  5
5608
331
52F5
  5
5647
331
1F89
  5
5693
331
5240
  5
557C
331
527F
  5
55D1
331
5334
  5
567D
331
5373
  5
551B
331
5287
  5
55D9
331
52BE
  5
5610
331
52FD
  5
564F
331
53B0
  5
5558
331
551A
  5
53B1
331
5559
  5
53F0
331
546D
  5
5489
331
55DD
  5
52D2
331
54A4
  5
5333
331
5614
  5
5309
331
54E3
  5
537A
331
53F7
  5
54EB
331
542E
  5
544A
331
5596
  5
52A1
331
53B8
  5
5560
331
1F91
  5
569B
331
5522
  5
53B9
331
5561
  5
53F8
331
5248
  5
5584
331
559E
  5
52A9
331
5475
  5
5491
331
55E5
  5
52DA
331
54AC
  5
533B
331
561C
  5
5311
331
53C0
  5
5568
331
53FF
  5
54F3
331
5436
  5
5452
331
54EB
  5
5382
  0
LAYOUT
  5
21
102
{ACAD_XDICTIONARY
360
7CAF
102
}
102
{ACAD_REACTORS
330
1E
102
}
330
1E
100
AcDbPlotSettings
  1

  2

  4

  6

 40
0.0
 41
0.0
 42
0.0
 43
0.0
 44
0.0
 45
0.0
 46
0.0
 47
0.0
 48
0.0
 49
0.0
140
0.0
141
0.0
142
1.0
143
1.0
 70
     0
 72
     0
 73
     0
 74
     0
  7

 75
     0
147
1.0
148
0.0
149
0.0
100
AcDbLayout
  1
Layout1
 70
     0
 71
     1
 10
0.0
 20
0.0
 11
12.0
 21
9.0
 12
0.0
 22
0.0
 32
0.0
 14
1.000000000000000E+20
 24
1.000000000000000E+20
 34
1.000000000000000E+20
 15
-1.000000000000000E+20
 25
-1.000000000000000E+20
 35
-1.000000000000000E+20
146
0.0
 13
0.0
 23
0.0
 33
0.0
 16
1.0
 26
0.0
 36
0.0
 17
0.0
 27
1.0
 37
0.0
 76
     0
330
B
  0
LAYOUT
  5
20
102
{ACAD_XDICTIONARY
360
7CAD
102
}
102
{ACAD_REACTORS
330
1E
102
}
330
1E
100
AcDbPlotSettings
  1

  2

  4

  6

 40
0.0
 41
0.0
 42
0.0
 43
0.0
 44
0.0
 45
0.0
 46
0.0
 47
0.0
 48
0.0
 49
0.0
140
0.0
141
0.0
142
1.0
143
1.0
 70
  1024
 72
     0
 73
     0
 74
     0
  7

 75
     0
147
1.0
148
0.0
149
0.0
100
AcDbLayout
  1
Model
 70
     0
 71
     0
 10
0.0
 20
0.0
 11
0.0
 21
0.0
 12
0.0
 22
0.0
 32
0.0
 14
0.0
 24
0.0
 34
0.0
 15
0.0
 25
0.0
 35
0.0
146
0.0
 13
0.0
 23
0.0
 33
0.0
 16
0.0
 26
0.0
 36
0.0
 17
0.0
 27
0.0
 37
0.0
 76
     0
330
A
331
15
  0
MATERIAL
  5
3967
102
{ACAD_XDICTIONARY
360
3968
102
}
102
{ACAD_REACTORS
330
395E
102
}
330
395E
100
AcDbMaterial
  1
ByBlock
 72
     0
 43
0.0208333333333333
 43
0.0
 43
0.0
 43
0.0
 43
0.0
 43
0.0208333333333333
 43
0.0
 43
0.0
 43
0.0
 43
0.0
 43
1.0
 43
0.0
 43
0.0
 43
0.0
 43
0.0
 43
1.0
 77
     0
 47
0.0208333333333333
 47
0.0
 47
0.0
 47
0.0
 47
0.0
 47
0.0208333333333333
 47
0.0
 47
0.0
 47
0.0
 47
0.0
 47
1.0
 47
0.0
 47
0.0
 47
0.0
 47
0.0
 47
1.0
171
     0
 49
0.0208333333333333
 49
0.0
 49
0.0
 49
0.0
 49
0.0
 49
0.0208333333333333
 49
0.0
 49
0.0
 49
0.0
 49
0.0
 49
1.0
 49
0.0
 49
0.0
 49
0.0
 49
0.0
 49
1.0
175
     0
142
0.0208333333333333
142
0.0
142
0.0
142
0.0
142
0.0
142
0.0208333333333333
142
0.0
142
0.0
142
0.0
142
0.0
142
1.0
142
0.0
142
0.0
142
0.0
142
0.0
142
1.0
179
     0
144
0.0208333333333333
144
0.0
144
0.0
144
0.0
144
0.0
144
0.0208333333333333
144
0.0
144
0.0
144
0.0
144
0.0
144
1.0
144
0.0
144
0.0
144
0.0
144
0.0
144
1.0
147
0.0208333333333333
147
0.0
147
0.0
147
0.0
147
0.0
147
0.0208333333333333
147
0.0
147
0.0
147
0.0
147
0.0
147
1.0
147
0.0
147
0.0
147
0.0
147
0.0
147
1.0
  0
MATERIAL
  5
395F
102
{ACAD_XDICTIONARY
360
3960
102
}
102
{ACAD_REACTORS
330
395E
102
}
330
395E
100
AcDbMaterial
  1
ByLayer
 72
     0
 43
0.0208333333333333
 43
0.0
 43
0.0
 43
0.0
 43
0.0
 43
0.0208333333333333
 43
0.0
 43
0.0
 43
0.0
 43
0.0
 43
1.0
 43
0.0
 43
0.0
 43
0.0
 43
0.0
 43
1.0
 77
     0
 47
0.0208333333333333
 47
0.0
 47
0.0
 47
0.0
 47
0.0
 47
0.0208333333333333
 47
0.0
 47
0.0
 47
0.0
 47
0.0
 47
1.0
 47
0.0
 47
0.0
 47
0.0
 47
0.0
 47
1.0
171
     0
 49
0.0208333333333333
 49
0.0
 49
0.0
 49
0.0
 49
0.0
 49
0.0208333333333333
 49
0.0
 49
0.0
 49
0.0
 49
0.0
 49
1.0
 49
0.0
 49
0.0
 49
0.0
 49
0.0
 49
1.0
175
     0
142
0.0208333333333333
142
0.0
142
0.0
142
0.0
142
0.0
142
0.0208333333333333
142
0.0
142
0.0
142
0.0
142
0.0
142
1.0
142
0.0
142
0.0
142
0.0
142
0.0
142
1.0
179
     0
144
0.0208333333333333
144
0.0
144
0.0
144
0.0
144
0.0
144
0.0208333333333333
144
0.0
144
0.0
144
0.0
144
0.0
144
1.0
144
0.0
144
0.0
144
0.0
144
0.0
144
1.0
147
0.0208333333333333
147
0.0
147
0.0
147
0.0
147
0.0
147
0.0208333333333333
147
0.0
147
0.0
147
0.0
147
0.0
147
1.0
147
0.0
147
0.0
147
0.0
147
0.0
147
1.0
  0
MATERIAL
  5
396F
102
{ACAD_XDICTIONARY
360
3970
102
}
102
{ACAD_REACTORS
330
395E
102
}
330
395E
100
AcDbMaterial
  1
Global
 72
     0
 43
0.0208333333333333
 43
0.0
 43
0.0
 43
0.0
 43
0.0
 43
0.0208333333333333
 43
0.0
 43
0.0
 43
0.0
 43
0.0
 43
1.0
 43
0.0
 43
0.0
 43
0.0
 43
0.0
 43
1.0
 77
     0
 47
0.0208333333333333
 47
0.0
 47
0.0
 47
0.0
 47
0.0
 47
0.0208333333333333
 47
0.0
 47
0.0
 47
0.0
 47
0.0
 47
1.0
 47
0.0
 47
0.0
 47
0.0
 47
0.0
 47
1.0
171
     0
 49
0.0208333333333333
 49
0.0
 49
0.0
 49
0.0
 49
0.0
 49
0.0208333333333333
 49
0.0
 49
0.0
 49
0.0
 49
0.0
 49
1.0
 49
0.0
 49
0.0
 49
0.0
 49
0.0
 49
1.0
175
     0
142
0.0208333333333333
142
0.0
142
0.0
142
0.0
142
0.0
142
0.0208333333333333
142
0.0
142
0.0
142
0.0
142
0.0
142
1.0
142
0.0
142
0.0
142
0.0
142
0.0
142
1.0
179
     0
144
0.0208333333333333
144
0.0
144
0.0
144
0.0
144
0.0
144
0.0208333333333333
144
0.0
144
0.0
144
0.0
144
0.0
144
1.0
144
0.0
144
0.0
144
0.0
144
0.0
144
1.0
147
0.0208333333333333
147
0.0
147
0.0
147
0.0
147
0.0
147
0.0208333333333333
147
0.0
147
0.0
147
0.0
147
0.0
147
1.0
147
0.0
147
0.0
147
0.0
147
0.0
147
1.0
  0
MLEADERSTYLE
  5
39AE
102
{ACAD_REACTORS
330
39AD
102
}
330
39AD
100
AcDbMLeaderStyle
170
     2
171
     1
172
     0
 90
        2
 40
0.0
 41
0.0
173
     1
 91
-1056964608
340
11
 92
       -2
290
     1
 42
2.0
291
     1
 43
0.36
  3
Standard
 44
4.0
300

342
17
174
     1
178
     6
175
     1
176
     0
 93
-1056964608
 45
4.0
292
     0
297
     0
 46
4.0
 94
-1056964608
 47
1.0
 49
1.0
140
1.0
293
     1
141
0.0
294
     1
177
     0
142
1.0
295
     0
296
     0
143
0.125
1001
ACAD_MLEADERVER
1070
     2
  0
MLINESTYLE
  5
1C
102
{ACAD_REACTORS
330
1B
102
}
330
1B
100
AcDbMlineStyle
  2
STANDARD
 70
     0
  3

 62
     0
 51
90.0
 52
90.0
 71
     2
 49
0.5
 62
   256
  6
BYLAYER
 49
-0.5
 62
   256
  6
BYLAYER
  0
ACDBPLACEHOLDER
  5
1D
102
{ACAD_REACTORS
330
1F
102
}
330
1F
  0
SCALE
  5
398C
102
{ACAD_REACTORS
330
398B
102
}
330
398B
100
AcDbScale
 70
     0
300
1:1
140
1.0
141
1.0
290
     1
  0
SCALE
  5
398D
102
{ACAD_REACTORS
330
398B
102
}
330
398B
100
AcDbScale
 70
     0
300
1:2
140
1.0
141
2.0
290
     0
  0
SCALE
  5
398E
102
{ACAD_REACTORS
330
398B
102
}
330
398B
100
AcDbScale
 70
     0
300
1:4
140
1.0
141
4.0
290
     0
  0
SCALE
  5
398F
102
{ACAD_REACTORS
330
398B
102
}
330
398B
100
AcDbScale
 70
     0
300
1:5
140
1.0
141
5.0
290
     0
  0
SCALE
  5
3990
102
{ACAD_REACTORS
330
398B
102
}
330
398B
100
AcDbScale
 70
     0
300
1:8
140
1.0
141
8.0
290
     0
  0
SCALE
  5
3991
102
{ACAD_REACTORS
330
398B
102
}
330
398B
100
AcDbScale
 70
     0
300
1:10
140
1.0
141
10.0
290
     0
  0
SCALE
  5
3992
102
{ACAD_REACTORS
330
398B
102
}
330
398B
100
AcDbScale
 70
     0
300
1:16
140
1.0
141
16.0
290
     0
  0
SCALE
  5
3993
102
{ACAD_REACTORS
330
398B
102
}
330
398B
100
AcDbScale
 70
     0
300
1:20
140
1.0
141
20.0
290
     0
  0
SCALE
  5
3994
102
{ACAD_REACTORS
330
398B
102
}
330
398B
100
AcDbScale
 70
     0
300
1:30
140
1.0
141
30.0
290
     0
  0
SCALE
  5
3995
102
{ACAD_REACTORS
330
398B
102
}
330
398B
100
AcDbScale
 70
     0
300
1:40
140
1.0
141
40.0
290
     0
  0
SCALE
  5
3996
102
{ACAD_REACTORS
330
398B
102
}
330
398B
100
AcDbScale
 70
     0
300
1:50
140
1.0
141
50.0
290
     0
  0
SCALE
  5
3997
102
{ACAD_REACTORS
330
398B
102
}
330
398B
100
AcDbScale
 70
     0
300
1:100
140
1.0
141
100.0
290
     0
  0
SCALE
  5
3998
102
{ACAD_REACTORS
330
398B
102
}
330
398B
100
AcDbScale
 70
     0
300
2:1
140
2.0
141
1.0
290
     0
  0
SCALE
  5
3999
102
{ACAD_REACTORS
330
398B
102
}
330
398B
100
AcDbScale
 70
     0
300
4:1
140
4.0
141
1.0
290
     0
  0
SCALE
  5
399A
102
{ACAD_REACTORS
330
398B
102
}
330
398B
100
AcDbScale
 70
     0
300
8:1
140
8.0
141
1.0
290
     0
  0
SCALE
  5
399B
102
{ACAD_REACTORS
330
398B
102
}
330
398B
100
AcDbScale
 70
     0
300
10:1
140
10.0
141
1.0
290
     0
  0
SCALE
  5
399C
102
{ACAD_REACTORS
330
398B
102
}
330
398B
100
AcDbScale
 70
     0
300
100:1
140
100.0
141
1.0
290
     0
  0
SCALE
  5
399D
102
{ACAD_REACTORS
330
398B
102
}
330
398B
100
AcDbScale
 70
     0
300
1/128" = 1'-0"
140
0.0078125
141
12.0
290
     0
  0
SCALE
  5
399E
102
{ACAD_REACTORS
330
398B
102
}
330
398B
100
AcDbScale
 70
     0
300
1/64" = 1'-0"
140
0.015625
141
12.0
290
     0
  0
SCALE
  5
399F
102
{ACAD_REACTORS
330
398B
102
}
330
398B
100
AcDbScale
 70
     0
300
1/32" = 1'-0"
140
0.03125
141
12.0
290
     0
  0
SCALE
  5
39A0
102
{ACAD_REACTORS
330
398B
102
}
330
398B
100
AcDbScale
 70
     0
300
1/16" = 1'-0"
140
0.0625
141
12.0
290
     0
  0
SCALE
  5
39A1
102
{ACAD_REACTORS
330
398B
102
}
330
398B
100
AcDbScale
 70
     0
300
3/32" = 1'-0"
140
0.09375
141
12.0
290
     0
  0
SCALE
  5
39A2
102
{ACAD_REACTORS
330
398B
102
}
330
398B
100
AcDbScale
 70
     0
300
1/8" = 1'-0"
140
0.125
141
12.0
290
     0
  0
SCALE
  5
39A3
102
{ACAD_REACTORS
330
398B
102
}
330
398B
100
AcDbScale
 70
     0
300
3/16" = 1'-0"
140
0.1875
141
12.0
290
     0
  0
SCALE
  5
39A4
102
{ACAD_REACTORS
330
398B
102
}
330
398B
100
AcDbScale
 70
     0
300
1/4" = 1'-0"
140
0.25
141
12.0
290
     0
  0
SCALE
  5
39A5
102
{ACAD_REACTORS
330
398B
102
}
330
398B
100
AcDbScale
 70
     0
300
3/8" = 1'-0"
140
0.375
141
12.0
290
     0
  0
SCALE
  5
39A6
102
{ACAD_REACTORS
330
398B
102
}
330
398B
100
AcDbScale
 70
     0
300
1/2" = 1'-0"
140
0.5
141
12.0
290
     0
  0
SCALE
  5
39A7
102
{ACAD_REACTORS
330
398B
102
}
330
398B
100
AcDbScale
 70
     0
300
3/4" = 1'-0"
140
0.75
141
12.0
290
     0
  0
SCALE
  5
39A8
102
{ACAD_REACTORS
330
398B
102
}
330
398B
100
AcDbScale
 70
     0
300
1" = 1'-0"
140
1.0
141
12.0
290
     0
  0
SCALE
  5
39A9
102
{ACAD_REACTORS
330
398B
102
}
330
398B
100
AcDbScale
 70
     0
300
1-1/2" = 1'-0"
140
1.5
141
12.0
290
     0
  0
SCALE
  5
39AA
102
{ACAD_REACTORS
330
398B
102
}
330
398B
100
AcDbScale
 70
     0
300
3" = 1'-0"
140
3.0
141
12.0
290
     0
  0
SCALE
  5
39AB
102
{ACAD_REACTORS
330
398B
102
}
330
398B
100
AcDbScale
 70
     0
300
6" = 1'-0"
140
6.0
141
12.0
290
     0
  0
SCALE
  5
39AC
102
{ACAD_REACTORS
330
398B
102
}
330
398B
100
AcDbScale
 70
     0
300
1'-0" = 1'-0"
140
12.0
141
12.0
290
     0
  0
TABLESTYLE
  5
398A
102
{ACAD_XDICTIONARY
360
72EA
102
}
102
{ACAD_REACTORS
330
3989
102
}
330
3989
100
AcDbTableStyle
  3
Standard
 70
     0
 71
     0
 40
1.5
 41
1.5
280
     0
281
     0
  7
Standard
140
4.5
170
     2
 62
     0
 63
     7
283
     0
274
    -2
284
     1
 64
     0
275
    -2
285
     1
 65
     0
276
    -2
286
     1
 66
     0
277
    -2
287
     1
 67
     0
278
    -2
288
     1
 68
     0
279
    -2
289
     1
 69
     0
  7
Standard
140
6.0
170
     5
 62
     0
 63
     7
283
     0
274
    -2
284
     1
 64
     0
275
    -2
285
     1
 65
     0
276
    -2
286
     1
 66
     0
277
    -2
287
     1
 67
     0
278
    -2
288
     1
 68
     0
279
    -2
289
     1
 69
     0
  7
Standard
140
4.5
170
     5
 62
     0
 63
     7
283
     0
274
    -2
284
     1
 64
     0
275
    -2
285
     1
 65
     0
276
    -2
286
     1
 66
     0
277
    -2
287
     1
 67
     0
278
    -2
288
     1
 68
     0
279
    -2
289
     1
 69
     0
  0
VISUALSTYLE
  5
397D
102
{ACAD_REACTORS
330
3977
102
}
330
3977
100
AcDbVisualStyle
  2
2dWireframe
 70
     4
 71
     0
 72
     2
 73
     0
 90
        0
 40
-0.6
 41
-30.0
 62
     5
 63
     7
 74
     1
 91
        4
 64
     7
 65
   257
 75
     1
175
     1
 42
1.0
 92
        0
 66
   257
 43
1.0
 76
     1
 77
     6
 78
     2
 67
     7
 79
     5
170
     0
171
     0
290
     0
174
     0
 93
        1
 44
0.0
173
     0
291
     0
 45
0.0
1001
ACAD
1000
AcDbSavedByObjectVersion
1070
     0
1000
AcDbSavedByObjectVersion
1070
     0
1000
AcDbSavedByObjectVersion
1070
     0
1000
AcDbSavedByObjectVersion
1070
     0
1000
AcDbSavedByObjectVersion
1070
     0
1000
AcDbSavedByObjectVersion
1070
     0
1000
AcDbSavedByObjectVersion
1070
     0
  0
VISUALSTYLE
  5
397F
102
{ACAD_REACTORS
330
3977
102
}
330
3977
100
AcDbVisualStyle
  2
3D Hidden
 70
     6
 71
     1
 72
     2
 73
     2
 90
        0
 40
-0.6
 41
-30.0
 62
     5
 63
     7
 74
     2
 91
        2
 64
     7
 65
   257
 75
     2
175
     1
 42
40.0
 92
        0
 66
   257
 43
1.0
 76
     1
 77
     6
 78
     2
 67
     7
 79
     3
170
     0
171
     0
290
     0
174
     0
 93
        1
 44
0.0
173
     0
291
     0
 45
0.0
1001
ACAD
1000
AcDbSavedByObjectVersion
1070
     0
1000
AcDbSavedByObjectVersion
1070
     0
1000
AcDbSavedByObjectVersion
1070
     0
1000
AcDbSavedByObjectVersion
1070
     0
1000
AcDbSavedByObjectVersion
1070
     0
1000
AcDbSavedByObjectVersion
1070
     0
1000
AcDbSavedByObjectVersion
1070
     0
  0
VISUALSTYLE
  5
397E
102
{ACAD_REACTORS
330
3977
102
}
330
3977
100
AcDbVisualStyle
  2
3dWireframe
 70
     5
 71
     0
 72
     2
 73
     0
 90
        0
 40
-0.6
 41
-30.0
 62
     5
 63
     7
 74
     1
 91
        4
 64
     7
 65
   257
 75
     1
175
     1
 42
1.0
 92
        0
 66
   257
 43
1.0
 76
     1
 77
     6
 78
     2
 67
     7
 79
     5
170
     0
171
     0
290
     0
174
     0
 93
        1
 44
0.0
173
     0
291
     0
 45
0.0
1001
ACAD
1000
AcDbSavedByObjectVersion
1070
     0
1000
AcDbSavedByObjectVersion
1070
     0
1000
AcDbSavedByObjectVersion
1070
     0
1000
AcDbSavedByObjectVersion
1070
     0
1000
AcDbSavedByObjectVersion
1070
     0
1000
AcDbSavedByObjectVersion
1070
     0
1000
AcDbSavedByObjectVersion
1070
     0
  0
VISUALSTYLE
  5
397C
102
{ACAD_REACTORS
330
3977
102
}
330
3977
100
AcDbVisualStyle
  2
Basic
 70
     7
 71
     1
 72
     0
 73
     1
 90
        0
 40
-0.6
 41
-30.0
 62
     5
 63
     7
 74
     0
 91
        4
 64
     7
 65
   257
 75
     1
175
     1
 42
1.0
 92
        8
 66
     7
 43
1.0
 76
     1
 77
     6
 78
     2
 67
     7
 79
     5
170
     0
171
     0
290
     0
174
     0
 93
        1
 44
0.0
173
     0
291
     1
 45
0.0
1001
ACAD
1000
AcDbSavedByObjectVersion
1070
     0
1000
AcDbSavedByObjectVersion
1070
     0
1000
AcDbSavedByObjectVersion
1070
     0
1000
AcDbSavedByObjectVersion
1070
     0
1000
AcDbSavedByObjectVersion
1070
     0
1000
AcDbSavedByObjectVersion
1070
     0
1000
AcDbSavedByObjectVersion
1070
     0
  0
VISUALSTYLE
  5
3983
102
{ACAD_REACTORS
330
3977
102
}
330
3977
100
AcDbVisualStyle
  2
Brighten
 70
    12
 71
     2
 72
     2
 73
     0
 90
        0
 40
-0.6
 41
-30.0
 62
     5
 63
     7
 74
     1
 91
        4
 64
     7
 65
   257
 75
     1
175
     1
 42
1.0
 92
        8
 66
     7
 43
1.0
 76
     1
 77
     6
 78
     2
 67
     7
 79
     5
170
     0
171
     0
290
     0
174
     0
 93
        1
 44
50.0
173
     0
291
     1
 45
0.0
1001
ACAD
1000
AcDbSavedByObjectVersion
1070
     0
1000
AcDbSavedByObjectVersion
1070
     0
1000
AcDbSavedByObjectVersion
1070
     0
1000
AcDbSavedByObjectVersion
1070
     0
1000
AcDbSavedByObjectVersion
1070
     0
1000
AcDbSavedByObjectVersion
1070
     0
1000
AcDbSavedByObjectVersion
1070
     0
  0
VISUALSTYLE
  5
3987
102
{ACAD_REACTORS
330
3977
102
}
330
3977
100
AcDbVisualStyle
  2
ColorChange
 70
    16
 71
     2
 72
     2
 73
     3
 90
        0
 40
-0.6
 41
-30.0
 62
     5
 63
     8
 74
     1
 91
        4
 64
     7
 65
   257
 75
     1
175
     1
 42
1.0
 92
        8
 66
     8
 43
1.0
 76
     1
 77
     6
 78
     2
 67
     7
 79
     5
170
     0
171
     0
290
     0
174
     0
 93
        1
 44
0.0
173
     0
291
     1
 45
0.0
1001
ACAD
1000
AcDbSavedByObjectVersion
1070
     0
1000
AcDbSavedByObjectVersion
1070
     0
1000
AcDbSavedByObjectVersion
1070
     0
1000
AcDbSavedByObjectVersion
1070
     0
1000
AcDbSavedByObjectVersion
1070
     0
1000
AcDbSavedByObjectVersion
1070
     0
1000
AcDbSavedByObjectVersion
1070
     0
  0
VISUALSTYLE
  5
3980
102
{ACAD_REACTORS
330
3977
102
}
330
3977
100
AcDbVisualStyle
  2
Conceptual
 70
     9
 71
     3
 72
     2
 73
     0
 90
        0
 40
-0.6
 41
-30.0
 62
     5
 63
     7
 74
     2
 91
        2
 64
     7
 65
   257
 75
     1
175
     1
 42
40.0
 92
        8
 66
     7
 43
1.0
 76
     1
 77
     6
 78
     2
 67
     7
 79
     3
170
     0
171
     0
290
     0
174
     0
 93
        1
 44
0.0
173
     0
291
     0
 45
0.0
1001
ACAD
1000
AcDbSavedByObjectVersion
1070
     0
1000
AcDbSavedByObjectVersion
1070
     0
1000
AcDbSavedByObjectVersion
1070
     0
1000
AcDbSavedByObjectVersion
1070
     0
1000
AcDbSavedByObjectVersion
1070
     0
1000
AcDbSavedByObjectVersion
1070
     0
1000
AcDbSavedByObjectVersion
1070
     0
  0
VISUALSTYLE
  5
3982
102
{ACAD_REACTORS
330
3977
102
}
330
3977
100
AcDbVisualStyle
  2
Dim
 70
    11
 71
     2
 72
     2
 73
     0
 90
        0
 40
-0.6
 41
-30.0
 62
     5
 63
     7
 74
     1
 91
        4
 64
     7
 65
   257
 75
     1
175
     1
 42
1.0
 92
        8
 66
     7
 43
1.0
 76
     1
 77
     6
 78
     2
 67
     7
 79
     5
170
     0
171
     0
290
     0
174
     0
 93
        1
 44
-50.0
173
     0
291
     1
 45
0.0
1001
ACAD
1000
AcDbSavedByObjectVersion
1070
     0
1000
AcDbSavedByObjectVersion
1070
     0
1000
AcDbSavedByObjectVersion
1070
     0
1000
AcDbSavedByObjectVersion
1070
     0
1000
AcDbSavedByObjectVersion
1070
     0
1000
AcDbSavedByObjectVersion
1070
     0
1000
AcDbSavedByObjectVersion
1070
     0
  0
VISUALSTYLE
  5
3986
102
{ACAD_REACTORS
330
3977
102
}
330
3977
100
AcDbVisualStyle
  2
Facepattern
 70
    15
 71
     2
 72
     2
 73
     0
 90
        0
 40
-0.6
 41
-30.0
 62
     5
 63
     7
 74
     1
 91
        4
 64
     7
 65
   257
 75
     1
175
     1
 42
1.0
 92
        8
 66
     7
 43
1.0
 76
     1
 77
     6
 78
     2
 67
     7
 79
     5
170
     0
171
     0
290
     0
174
     0
 93
        1
 44
0.0
173
     0
291
     1
 45
0.0
1001
ACAD
1000
AcDbSavedByObjectVersion
1070
     0
1000
AcDbSavedByObjectVersion
1070
     0
1000
AcDbSavedByObjectVersion
1070
     0
1000
AcDbSavedByObjectVersion
1070
     0
1000
AcDbSavedByObjectVersion
1070
     0
1000
AcDbSavedByObjectVersion
1070
     0
1000
AcDbSavedByObjectVersion
1070
     0
  0
VISUALSTYLE
  5
3978
102
{ACAD_REACTORS
330
3977
102
}
330
3977
100
AcDbVisualStyle
  2
Flat
 70
     0
 71
     2
 72
     1
 73
     1
 90
        2
 40
-0.6
 41
30.0
 62
     5
 63
     7
 74
     0
 91
        4
 64
     7
 65
   257
 75
     1
175
     1
 42
1.0
 92
        8
 66
     7
 43
1.0
 76
     1
 77
     6
 78
     2
 67
     7
 79
     5
170
     0
171
     0
290
     0
174
     0
 93
       13
 44
0.0
173
     0
291
     1
 45
0.0
1001
ACAD
1000
AcDbSavedByObjectVersion
1070
     0
1000
AcDbSavedByObjectVersion
1070
     0
1000
AcDbSavedByObjectVersion
1070
     0
1000
AcDbSavedByObjectVersion
1070
     0
1000
AcDbSavedByObjectVersion
1070
     0
1000
AcDbSavedByObjectVersion
1070
     0
1000
AcDbSavedByObjectVersion
1070
     0
  0
VISUALSTYLE
  5
3979
102
{ACAD_REACTORS
330
3977
102
}
330
3977
100
AcDbVisualStyle
  2
FlatWithEdges
 70
     1
 71
     2
 72
     1
 73
     1
 90
        2
 40
-0.6
 41
30.0
 62
     5
 63
     7
 74
     1
 91
        4
 64
     7
 65
   257
 75
     1
175
     1
 42
1.0
 92
        0
 66
   257
 43
1.0
 76
     1
 77
     6
 78
     2
 67
     7
 79
     5
170
     0
171
     0
290
     0
174
     0
 93
       13
 44
0.0
173
     0
291
     1
 45
0.0
1001
ACAD
1000
AcDbSavedByObjectVersion
1070
     0
1000
AcDbSavedByObjectVersion
1070
     0
1000
AcDbSavedByObjectVersion
1070
     0
1000
AcDbSavedByObjectVersion
1070
     0
1000
AcDbSavedByObjectVersion
1070
     0
1000
AcDbSavedByObjectVersion
1070
     0
1000
AcDbSavedByObjectVersion
1070
     0
  0
VISUALSTYLE
  5
397A
102
{ACAD_REACTORS
330
3977
102
}
330
3977
100
AcDbVisualStyle
  2
Gouraud
 70
     2
 71
     2
 72
     2
 73
     1
 90
        2
 40
-0.6
 41
30.0
 62
     5
 63
     7
 74
     0
 91
        4
 64
     7
 65
   257
 75
     1
175
     1
 42
1.0
 92
        0
 66
     7
 43
1.0
 76
     1
 77
     6
 78
     2
 67
     7
 79
     5
170
     0
171
     0
290
     0
174
     0
 93
       13
 44
0.0
173
     0
291
     1
 45
0.0
1001
ACAD
1000
AcDbSavedByObjectVersion
1070
     0
1000
AcDbSavedByObjectVersion
1070
     0
1000
AcDbSavedByObjectVersion
1070
     0
1000
AcDbSavedByObjectVersion
1070
     0
1000
AcDbSavedByObjectVersion
1070
     0
1000
AcDbSavedByObjectVersion
1070
     0
1000
AcDbSavedByObjectVersion
1070
     0
  0
VISUALSTYLE
  5
397B
102
{ACAD_REACTORS
330
3977
102
}
330
3977
100
AcDbVisualStyle
  2
GouraudWithEdges
 70
     3
 71
     2
 72
     2
 73
     1
 90
        2
 40
-0.6
 41
30.0
 62
     5
 63
     7
 74
     1
 91
        4
 64
     7
 65
   257
 75
     1
175
     1
 42
1.0
 92
        0
 66
   257
 43
1.0
 76
     1
 77
     6
 78
     2
 67
     7
 79
     5
170
     0
171
     0
290
     0
174
     0
 93
       13
 44
0.0
173
     0
291
     1
 45
0.0
1001
ACAD
1000
AcDbSavedByObjectVersion
1070
     0
1000
AcDbSavedByObjectVersion
1070
     0
1000
AcDbSavedByObjectVersion
1070
     0
1000
AcDbSavedByObjectVersion
1070
     0
1000
AcDbSavedByObjectVersion
1070
     0
1000
AcDbSavedByObjectVersion
1070
     0
1000
AcDbSavedByObjectVersion
1070
     0
  0
VISUALSTYLE
  5
3985
102
{ACAD_REACTORS
330
3977
102
}
330
3977
100
AcDbVisualStyle
  2
Linepattern
 70
    14
 71
     2
 72
     2
 73
     0
 90
        0
 40
-0.6
 41
-30.0
 62
     5
 63
     7
 74
     1
 91
        4
 64
     7
 65
   257
 75
     7
175
     7
 42
1.0
 92
        8
 66
     7
 43
1.0
 76
     1
 77
     6
 78
     2
 67
     7
 79
     5
170
     0
171
     0
290
     0
174
     0
 93
        1
 44
0.0
173
     0
291
     1
 45
0.0
1001
ACAD
1000
AcDbSavedByObjectVersion
1070
     0
1000
AcDbSavedByObjectVersion
1070
     0
1000
AcDbSavedByObjectVersion
1070
     0
1000
AcDbSavedByObjectVersion
1070
     0
1000
AcDbSavedByObjectVersion
1070
     0
1000
AcDbSavedByObjectVersion
1070
     0
1000
AcDbSavedByObjectVersion
1070
     0
  0
VISUALSTYLE
  5
3981
102
{ACAD_REACTORS
330
3977
102
}
330
3977
100
AcDbVisualStyle
  2
Realistic
 70
     8
 71
     2
 72
     2
 73
     0
 90
        0
 40
-0.6
 41
-30.0
 62
     5
 63
     7
 74
     1
 91
        0
 64
     7
 65
   257
 75
     1
175
     1
 42
1.0
 92
        8
 66
     8
 43
1.0
 76
     1
 77
     6
 78
     2
 67
     7
 79
     5
170
     0
171
     0
290
     0
174
     0
 93
       13
 44
0.0
173
     0
291
     0
 45
0.0
1001
ACAD
1000
AcDbSavedByObjectVersion
1070
     0
1000
AcDbSavedByObjectVersion
1070
     0
1000
AcDbSavedByObjectVersion
1070
     0
1000
AcDbSavedByObjectVersion
1070
     0
1000
AcDbSavedByObjectVersion
1070
     0
1000
AcDbSavedByObjectVersion
1070
     0
1000
AcDbSavedByObjectVersion
1070
     0
  0
VISUALSTYLE
  5
3984
102
{ACAD_REACTORS
330
3977
102
}
330
3977
100
AcDbVisualStyle
  2
Thicken
 70
    13
 71
     2
 72
     2
 73
     0
 90
        0
 40
-0.6
 41
-30.0
 62
     5
 63
     7
 74
     1
 91
        4
 64
     7
 65
   257
 75
     1
175
     1
 42
1.0
 92
       12
 66
     7
 43
1.0
 76
     1
 77
     6
 78
     2
 67
     7
 79
     5
170
     0
171
     0
290
     0
174
     0
 93
        1
 44
0.0
173
     0
291
     1
 45
0.0
1001
ACAD
1000
AcDbSavedByObjectVersion
1070
     0
1000
AcDbSavedByObjectVersion
1070
     0
1000
AcDbSavedByObjectVersion
1070
     0
1000
AcDbSavedByObjectVersion
1070
     0
1000
AcDbSavedByObjectVersion
1070
     0
1000
AcDbSavedByObjectVersion
1070
     0
1000
AcDbSavedByObjectVersion
1070
     0
  0
DICTIONARYVAR
  5
72CE
102
{ACAD_REACTORS
330
72CB
102
}
330
72CB
100
DictionaryVariables
280
     0
  1
1:1
  0
DICTIONARYVAR
  5
72CD
102
{ACAD_REACTORS
330
72CB
102
}
330
72CB
100
DictionaryVariables
280
     0
  1
STANDARD
  0
DICTIONARYVAR
  5
72CC
102
{ACAD_REACTORS
330
72CB
102
}
330
72CB
100
DictionaryVariables
280
     0
  1
STANDARD
  0
DICTIONARYVAR
  5
72D1
102
{ACAD_REACTORS
330
72CB
102
}
330
72CB
100
DictionaryVariables
280
     0
  1
1
  0
DICTIONARYVAR
  5
72D0
102
{ACAD_REACTORS
330
72CB
102
}
330
72CB
100
DictionaryVariables
280
     0
  1
0
  0
DICTIONARYVAR
  5
72CF
102
{ACAD_REACTORS
330
72CB
102
}
330
72CB
100
DictionaryVariables
280
     0
  1
127
  0
XRECORD
  5
72C8
102
{ACAD_REACTORS
330
72C6
102
}
330
72C6
100
AcDbXrecord
280
     1
  0
DICTIONARY
  5
7CAF
330
21
100
AcDbDictionary
280
     1
281
     1
  3
ACAD_XREC_ROUNDTRIP
360
7CB0
  0
DICTIONARY
  5
7CAD
330
20
100
AcDbDictionary
280
     1
281
     1
  3
ACAD_XREC_ROUNDTRIP
360
7CAE
  0
DICTIONARY
  5
3968
330
3967
100
AcDbDictionary
280
     1
281
     1
  3
ACAD_XREC_ROUNDTRIP
360
72F3
  3
BUMPTILE
360
396A
  3
DIFFUSETILE
360
3969
  3
OPACITYTILE
360
396D
  3
REFLECTIONTILE
360
396C
  3
REFRACTIONTILE
360
396E
  3
SPECULARTILE
360
396B
  0
DICTIONARY
  5
3960
330
395F
100
AcDbDictionary
280
     1
281
     1
  3
ACAD_XREC_ROUNDTRIP
360
72F2
  3
BUMPTILE
360
3962
  3
DIFFUSETILE
360
3961
  3
OPACITYTILE
360
3965
  3
REFLECTIONTILE
360
3964
  3
REFRACTIONTILE
360
3966
  3
SPECULARTILE
360
3963
  0
DICTIONARY
  5
3970
330
396F
100
AcDbDictionary
280
     1
281
     1
  3
ACAD_XREC_ROUNDTRIP
360
72F4
  3
BUMPTILE
360
3972
  3
DIFFUSETILE
360
3971
  3
OPACITYTILE
360
3975
  3
REFLECTIONTILE
360
3974
  3
REFRACTIONTILE
360
3976
  3
SPECULARTILE
360
3973
  0
DICTIONARY
  5
72EA
330
398A
100
AcDbDictionary
280
     1
281
     1
  3
ACAD_ROUNDTRIP_2008_TABLESTYLE_CELLSTYLEMAP
360
7CAB
  3
ACAD_XREC_ROUNDTRIP
360
7CB1
  0
XRECORD
  5
7CB0
102
{ACAD_REACTORS
330
7CAF
102
}
330
7CAF
100
AcDbXrecord
280
     1
102
SHADEPLOT
 70
     0
102
SHADEPLOTRESLEVEL
 70
     2
102
SHADEPLOTCUSTOMDPI
 70
   300
  0
XRECORD
  5
7CAE
102
{ACAD_REACTORS
330
7CAD
102
}
330
7CAD
100
AcDbXrecord
280
     1
102
SHADEPLOT
 70
     0
102
SHADEPLOTRESLEVEL
 70
     2
102
SHADEPLOTCUSTOMDPI
 70
   300
  0
XRECORD
  5
72F3
102
{ACAD_REACTORS
330
3968
102
}
330
3968
100
AcDbXrecord
280
     1
102
MATERIAL
148
0.0
149
0.0
149
0.0
 93
        0
 94
      127
282
     0
 72
     0
 77
     0
171
     0
175
     0
179
     0
273
     0
  0
XRECORD
  5
396A
102
{ACAD_REACTORS
330
3968
102
}
330
3968
100
AcDbXrecord
280
     1
270
     1
271
     1
  0
XRECORD
  5
3969
102
{ACAD_REACTORS
330
3968
102
}
330
3968
100
AcDbXrecord
280
     1
270
     1
271
     1
  0
XRECORD
  5
396D
102
{ACAD_REACTORS
330
3968
102
}
330
3968
100
AcDbXrecord
280
     1
270
     1
271
     1
  0
XRECORD
  5
396C
102
{ACAD_REACTORS
330
3968
102
}
330
3968
100
AcDbXrecord
280
     1
270
     1
271
     1
  0
XRECORD
  5
396E
102
{ACAD_REACTORS
330
3968
102
}
330
3968
100
AcDbXrecord
280
     1
270
     1
271
     1
  0
XRECORD
  5
396B
102
{ACAD_REACTORS
330
3968
102
}
330
3968
100
AcDbXrecord
280
     1
270
     1
271
     1
  0
XRECORD
  5
72F2
102
{ACAD_REACTORS
330
3960
102
}
330
3960
100
AcDbXrecord
280
     1
102
MATERIAL
148
0.0
149
0.0
149
0.0
 93
        0
 94
      127
282
     0
 72
     0
 77
     0
171
     0
175
     0
179
     0
273
     0
  0
XRECORD
  5
3962
102
{ACAD_REACTORS
330
3960
102
}
330
3960
100
AcDbXrecord
280
     1
270
     1
271
     1
  0
XRECORD
  5
3961
102
{ACAD_REACTORS
330
3960
102
}
330
3960
100
AcDbXrecord
280
     1
270
     1
271
     1
  0
XRECORD
  5
3965
102
{ACAD_REACTORS
330
3960
102
}
330
3960
100
AcDbXrecord
280
     1
270
     1
271
     1
  0
XRECORD
  5
3964
102
{ACAD_REACTORS
330
3960
102
}
330
3960
100
AcDbXrecord
280
     1
270
     1
271
     1
  0
XRECORD
  5
3966
102
{ACAD_REACTORS
330
3960
102
}
330
3960
100
AcDbXrecord
280
     1
270
     1
271
     1
  0
XRECORD
  5
3963
102
{ACAD_REACTORS
330
3960
102
}
330
3960
100
AcDbXrecord
280
     1
270
     1
271
     1
  0
XRECORD
  5
72F4
102
{ACAD_REACTORS
330
3970
102
}
330
3970
100
AcDbXrecord
280
     1
102
MATERIAL
148
0.0
149
0.0
149
0.0
 93
        0
 94
      127
282
     0
 72
     0
 77
     0
171
     0
175
     0
179
     0
273
     0
  0
XRECORD
  5
3972
102
{ACAD_REACTORS
330
3970
102
}
330
3970
100
AcDbXrecord
280
     1
270
     1
271
     1
  0
XRECORD
  5
3971
102
{ACAD_REACTORS
330
3970
102
}
330
3970
100
AcDbXrecord
280
     1
270
     1
271
     1
  0
XRECORD
  5
3975
102
{ACAD_REACTORS
330
3970
102
}
330
3970
100
AcDbXrecord
280
     1
270
     1
271
     1
  0
XRECORD
  5
3974
102
{ACAD_REACTORS
330
3970
102
}
330
3970
100
AcDbXrecord
280
     1
270
     1
271
     1
  0
XRECORD
  5
3976
102
{ACAD_REACTORS
330
3970
102
}
330
3970
100
AcDbXrecord
280
     1
270
     1
271
     1
  0
XRECORD
  5
3973
102
{ACAD_REACTORS
330
3970
102
}
330
3970
100
AcDbXrecord
280
     1
270
     1
271
     1
  0
CELLSTYLEMAP
  5
7CAB
102
{ACAD_REACTORS
330
72EA
102
}
330
72EA
100
AcDbCellStyleMap
 90
        3
300
CELLSTYLE
  1
TABLEFORMAT_BEGIN
 90
        5
170
     1
 91
        0
 92
    32768
 62
   257
 93
        1
300
CONTENTFORMAT
  1
CONTENTFORMAT_BEGIN
 90
        0
 91
        0
 92
      512
 93
        0
300

 40
0.0
140
1.0
 94
        5
 62
     0
340
17
144
6.0
309
CONTENTFORMAT_END
171
     1
301
MARGIN
  1
CELLMARGIN_BEGIN
 40
1.5
 40
1.5
 40
1.5
 40
1.5
 40
0.18
 40
0.18
309
CELLMARGIN_END
 94
        6
 95
        1
302
GRIDFORMAT
  1
GRIDFORMAT_BEGIN
 90
        0
 91
        1
 62
     0
 92
       -2
340
0
 93
        0
 40
1.125
309
GRIDFORMAT_END
 95
        2
302
GRIDFORMAT
  1
GRIDFORMAT_BEGIN
 90
        0
 91
        1
 62
     0
 92
       -2
340
0
 93
        0
 40
1.125
309
GRIDFORMAT_END
 95
        4
302
GRIDFORMAT
  1
GRIDFORMAT_BEGIN
 90
        0
 91
        1
 62
     0
 92
       -2
340
0
 93
        0
 40
1.125
309
GRIDFORMAT_END
 95
        8
302
GRIDFORMAT
  1
GRIDFORMAT_BEGIN
 90
        0
 91
        1
 62
     0
 92
       -2
340
0
 93
        0
 40
1.125
309
GRIDFORMAT_END
 95
       16
302
GRIDFORMAT
  1
GRIDFORMAT_BEGIN
 90
        0
 91
        1
 62
     0
 92
       -2
340
0
 93
        0
 40
1.125
309
GRIDFORMAT_END
 95
       32
302
GRIDFORMAT
  1
GRIDFORMAT_BEGIN
 90
        0
 91
        1
 62
     0
 92
       -2
340
0
 93
        0
 40
1.125
309
GRIDFORMAT_END
309
TABLEFORMAT_END
  1
CELLSTYLE_BEGIN
 90
        1
 91
        1
300
_TITLE
309
CELLSTYLE_END
300
CELLSTYLE
  1
TABLEFORMAT_BEGIN
 90
        5
170
     1
 91
        0
 92
        0
 62
   257
 93
        1
300
CONTENTFORMAT
  1
CONTENTFORMAT_BEGIN
 90
        0
 91
        0
 92
      512
 93
        0
300

 40
0.0
140
1.0
 94
        5
 62
     0
340
17
144
4.5
309
CONTENTFORMAT_END
171
     1
301
MARGIN
  1
CELLMARGIN_BEGIN
 40
1.5
 40
1.5
 40
1.5
 40
1.5
 40
0.18
 40
0.18
309
CELLMARGIN_END
 94
        6
 95
        1
302
GRIDFORMAT
  1
GRIDFORMAT_BEGIN
 90
        0
 91
        1
 62
     0
 92
       -2
340
0
 93
        0
 40
1.125
309
GRIDFORMAT_END
 95
        2
302
GRIDFORMAT
  1
GRIDFORMAT_BEGIN
 90
        0
 91
        1
 62
     0
 92
       -2
340
0
 93
        0
 40
1.125
309
GRIDFORMAT_END
 95
        4
302
GRIDFORMAT
  1
GRIDFORMAT_BEGIN
 90
        0
 91
        1
 62
     0
 92
       -2
340
0
 93
        0
 40
1.125
309
GRIDFORMAT_END
 95
        8
302
GRIDFORMAT
  1
GRIDFORMAT_BEGIN
 90
        0
 91
        1
 62
     0
 92
       -2
340
0
 93
        0
 40
1.125
309
GRIDFORMAT_END
 95
       16
302
GRIDFORMAT
  1
GRIDFORMAT_BEGIN
 90
        0
 91
        1
 62
     0
 92
       -2
340
0
 93
        0
 40
1.125
309
GRIDFORMAT_END
 95
       32
302
GRIDFORMAT
  1
GRIDFORMAT_BEGIN
 90
        0
 91
        1
 62
     0
 92
       -2
340
0
 93
        0
 40
1.125
309
GRIDFORMAT_END
309
TABLEFORMAT_END
  1
CELLSTYLE_BEGIN
 90
        2
 91
        1
300
_HEADER
309
CELLSTYLE_END
300
CELLSTYLE
  1
TABLEFORMAT_BEGIN
 90
        5
170
     1
 91
        0
 92
        0
 62
   257
 93
        1
300
CONTENTFORMAT
  1
CONTENTFORMAT_BEGIN
 90
        0
 91
        0
 92
      512
 93
        0
300

 40
0.0
140
1.0
 94
        2
 62
     0
340
17
144
4.5
309
CONTENTFORMAT_END
171
     1
301
MARGIN
  1
CELLMARGIN_BEGIN
 40
1.5
 40
1.5
 40
1.5
 40
1.5
 40
0.18
 40
0.18
309
CELLMARGIN_END
 94
        6
 95
        1
302
GRIDFORMAT
  1
GRIDFORMAT_BEGIN
 90
        0
 91
        1
 62
     0
 92
       -2
340
0
 93
        0
 40
1.125
309
GRIDFORMAT_END
 95
        2
302
GRIDFORMAT
  1
GRIDFORMAT_BEGIN
 90
        0
 91
        1
 62
     0
 92
       -2
340
0
 93
        0
 40
1.125
309
GRIDFORMAT_END
 95
        4
302
GRIDFORMAT
  1
GRIDFORMAT_BEGIN
 90
        0
 91
        1
 62
     0
 92
       -2
340
0
 93
        0
 40
1.125
309
GRIDFORMAT_END
 95
        8
302
GRIDFORMAT
  1
GRIDFORMAT_BEGIN
 90
        0
 91
        1
 62
     0
 92
       -2
340
0
 93
        0
 40
1.125
309
GRIDFORMAT_END
 95
       16
302
GRIDFORMAT
  1
GRIDFORMAT_BEGIN
 90
        0
 91
        1
 62
     0
 92
       -2
340
0
 93
        0
 40
1.125
309
GRIDFORMAT_END
 95
       32
302
GRIDFORMAT
  1
GRIDFORMAT_BEGIN
 90
        0
 91
        1
 62
     0
 92
       -2
340
0
 93
        0
 40
1.125
309
GRIDFORMAT_END
309
TABLEFORMAT_END
  1
CELLSTYLE_BEGIN
 90
        3
 91
        2
300
_DATA
309
CELLSTYLE_END
  0
XRECORD
  5
7CB1
102
{ACAD_REACTORS
330
72EA
102
}
330
72EA
100
AcDbXrecord
280
     1
102
ACAD_ROUNDTRIP_PRE2007_TABLESTYLE
 90
      512
 91
        0
  1

 92
      512
 93
        0
  2

 94
      512
 95
        0
  3

  0
ENDSEC
  0
EOF
