  0
SECTION
  2
HEADER
  9
$ACADVER
  1
AC1015
  9
$ACADMAINTVER
 70
    20
  9
$DWGCODEPAGE
  3
ANSI_1252
  9
$INSBASE
 10
0.0
 20
0.0
 30
0.0
  9
$EXTMIN
 10
-109.3687751776406
 20
-139.2543317323027
 30
-0.0000000000000164
  9
$EXTMAX
 10
185.7475207379993
 20
168.3829821217878
 30
0.0000000000000142
  9
$LIMMIN
 10
-20.0
 20
-0.021978
  9
$LIMMAX
 10
2645.85
 20
758.35
  9
$ORTHOMODE
 70
     0
  9
$REGENMODE
 70
     1
  9
$FILLMODE
 70
     1
  9
$QTEXTMODE
 70
     0
  9
$MIRRTEXT
 70
     1
  9
$LTSCALE
 40
10.0
  9
$ATTMODE
 70
     1
  9
$TEXTSIZE
 40
0.0
  9
$TRACEWID
 40
0.05
  9
$TEXTSTYLE
  7
Standard
  9
$CLAYER
  8
0
  9
$CELTYPE
  6
Continuous
  9
$CECOLOR
 62
   256
  9
$CELTSCALE
 40
1.0
  9
$DISPSILH
 70
     0
  9
$DIMSCALE
 40
1.0
  9
$DIMASZ
 40
1.25
  9
$DIMEXO
 40
0.0
  9
$DIMDLI
 40
0.38
  9
$DIMRND
 40
0.0
  9
$DIMDLE
 40
0.0
  9
$DIMEXE
 40
0.75
  9
$DIMTP
 40
0.0
  9
$DIMTM
 40
0.0
  9
$DIMTXT
 40
2.5
  9
$DIMCEN
 40
0.09
  9
$DIMTSZ
 40
0.0
  9
$DIMTOL
 70
     0
  9
$DIMLIM
 70
     0
  9
$DIMTIH
 70
     0
  9
$DIMTOH
 70
     0
  9
$DIMSE1
 70
     0
  9
$DIMSE2
 70
     0
  9
$DIMTAD
 70
     1
  9
$DIMZIN
 70
     0
  9
$DIMBLK
  1

  9
$DIMASO
 70
     1
  9
$DIMSHO
 70
     1
  9
$DIMPOST
  1

  9
$DIMAPOST
  1

  9
$DIMALT
 70
     0
  9
$DIMALTD
 70
     2
  9
$DIMALTF
 40
25.4
  9
$DIMLFAC
 40
1.0
  9
$DIMTOFL
 70
     0
  9
$DIMTVP
 40
0.0
  9
$DIMTIX
 70
     0
  9
$DIMSOXD
 70
     0
  9
$DIMSAH
 70
     0
  9
$DIMBLK1
  1

  9
$DIMBLK2
  1

  9
$DIMSTYLE
  2
Standard
  9
$DIMCLRD
 70
     7
  9
$DIMCLRE
 70
     7
  9
$DIMCLRT
 70
     7
  9
$DIMTFAC
 40
0.8
  9
$DIMGAP
 40
1.25
  9
$DIMJUST
 70
     0
  9
$DIMSD1
 70
     0
  9
$DIMSD2
 70
     0
  9
$DIMTOLJ
 70
     1
  9
$DIMTZIN
 70
     0
  9
$DIMALTZ
 70
     0
  9
$DIMALTTZ
 70
     0
  9
$DIMUPT
 70
     0
  9
$DIMDEC
 70
     2
  9
$DIMTDEC
 70
     4
  9
$DIMALTU
 70
     2
  9
$DIMALTTD
 70
     2
  9
$DIMTXSTY
  7
Standard
  9
$DIMAUNIT
 70
     0
  9
$DIMADEC
 70
     0
  9
$DIMALTRND
 40
0.0
  9
$DIMAZIN
 70
     0
  9
$DIMDSEP
 70
     0
  9
$DIMATFIT
 70
     3
  9
$DIMFRAC
 70
     0
  9
$DIMLDRBLK
  1

  9
$DIMLUNIT
 70
     2
  9
$DIMLWD
 70
     0
  9
$DIMLWE
 70
     0
  9
$DIMTMOVE
 70
     0
  9
$LUNITS
 70
     2
  9
$LUPREC
 70
     4
  9
$SKETCHINC
 40
0.1
  9
$FILLETRAD
 40
0.0
  9
$AUNITS
 70
     0
  9
$AUPREC
 70
     0
  9
$MENU
  1
acad
  9
$ELEVATION
 40
0.0
  9
$PELEVATION
 40
0.0
  9
$THICKNESS
 40
0.0
  9
$LIMCHECK
 70
     0
  9
$CHAMFERA
 40
0.0
  9
$CHAMFERB
 40
0.0
  9
$CHAMFERC
 40
0.0
  9
$CHAMFERD
 40
0.0
  9
$SKPOLY
 70
     0
  9
$TDCREATE
 40
2455329.702198484
  9
$TDUCREATE
 40
2455329.618865150
  9
$TDUPDATE
 40
2455383.393783727
  9
$TDUUPDATE
 40
2455383.310450394
  9
$TDINDWG
 40
0.0274375926
  9
$TDUSRTIMER
 40
0.0274359722
  9
$USRTIMER
 70
     1
  9
$ANGBASE
 50
0.0
  9
$ANGDIR
 70
     0
  9
$PDMODE
 70
     0
  9
$PDSIZE
 40
0.0
  9
$PLINEWID
 40
0.0
  9
$SPLFRAME
 70
     0
  9
$SPLINETYPE
 70
     6
  9
$SPLINESEGS
 70
     8
  9
$HANDSEED
  5
7B86
  9
$SURFTAB1
 70
     6
  9
$SURFTAB2
 70
     6
  9
$SURFTYPE
 70
     6
  9
$SURFU
 70
     6
  9
$SURFV
 70
     6
  9
$UCSBASE
  2

  9
$UCSNAME
  2

  9
$UCSORG
 10
0.0
 20
0.0
 30
0.0
  9
$UCSXDIR
 10
1.0
 20
0.0
 30
0.0
  9
$UCSYDIR
 10
0.0
 20
1.0
 30
0.0
  9
$UCSORTHOREF
  2

  9
$UCSORTHOVIEW
 70
     0
  9
$UCSORGTOP
 10
0.0
 20
0.0
 30
0.0
  9
$UCSORGBOTTOM
 10
0.0
 20
0.0
 30
0.0
  9
$UCSORGLEFT
 10
0.0
 20
0.0
 30
0.0
  9
$UCSORGRIGHT
 10
0.0
 20
0.0
 30
0.0
  9
$UCSORGFRONT
 10
0.0
 20
0.0
 30
0.0
  9
$UCSORGBACK
 10
0.0
 20
0.0
 30
0.0
  9
$PUCSBASE
  2

  9
$PUCSNAME
  2

  9
$PUCSORG
 10
0.0
 20
0.0
 30
0.0
  9
$PUCSXDIR
 10
1.0
 20
0.0
 30
0.0
  9
$PUCSYDIR
 10
0.0
 20
1.0
 30
0.0
  9
$PUCSORTHOREF
  2

  9
$PUCSORTHOVIEW
 70
     0
  9
$PUCSORGTOP
 10
0.0
 20
0.0
 30
0.0
  9
$PUCSORGBOTTOM
 10
0.0
 20
0.0
 30
0.0
  9
$PUCSORGLEFT
 10
0.0
 20
0.0
 30
0.0
  9
$PUCSORGRIGHT
 10
0.0
 20
0.0
 30
0.0
  9
$PUCSORGFRONT
 10
0.0
 20
0.0
 30
0.0
  9
$PUCSORGBACK
 10
0.0
 20
0.0
 30
0.0
  9
$USERI1
 70
     0
  9
$USERI2
 70
     0
  9
$USERI3
 70
     0
  9
$USERI4
 70
     0
  9
$USERI5
 70
     0
  9
$USERR1
 40
0.0
  9
$USERR2
 40
0.0
  9
$USERR3
 40
0.0
  9
$USERR4
 40
0.0
  9
$USERR5
 40
0.0
  9
$WORLDVIEW
 70
     1
  9
$SHADEDGE
 70
     3
  9
$SHADEDIF
 70
    70
  9
$TILEMODE
 70
     1
  9
$MAXACTVP
 70
    16
  9
$PINSBASE
 10
0.0
 20
0.0
 30
0.0
  9
$PLIMCHECK
 70
     0
  9
$PEXTMIN
 10
1.000000000000000E+20
 20
1.000000000000000E+20
 30
1.000000000000000E+20
  9
$PEXTMAX
 10
-1.000000000000000E+20
 20
-1.000000000000000E+20
 30
-1.000000000000000E+20
  9
$PLIMMIN
 10
0.0
 20
0.0
  9
$PLIMMAX
 10
12.0
 20
9.0
  9
$UNITMODE
 70
     0
  9
$VISRETAIN
 70
     0
  9
$PLINEGEN
 70
     1
  9
$PSLTSCALE
 70
     0
  9
$TREEDEPTH
 70
  3020
  9
$CMLSTYLE
  2
Standard
  9
$CMLJUST
 70
     0
  9
$CMLSCALE
 40
1.0
  9
$PROXYGRAPHICS
 70
     0
  9
$MEASUREMENT
 70
     1
  9
$CELWEIGHT
370
     0
  9
$ENDCAPS
280
     0
  9
$JOINSTYLE
280
     0
  9
$LWDISPLAY
290
     0
  9
$INSUNITS
 70
     0
  9
$HYPERLINKBASE
  1

  9
$STYLESHEET
  1

  9
$XEDIT
290
     1
  9
$CEPSNTYPE
380
     0
  9
$PSTYLEMODE
290
     1
  9
$FINGERPRINTGUID
  2

  9
$VERSIONGUID
  2
{F0CEBB61-5DE7-4DEE-8A0D-929DCA1FCC34}
  9
$EXTNAMES
290
     1
  9
$PSVPSCALE
 40
0.0
  9
$OLESTARTUP
290
     0
  0
ENDSEC
  0
SECTION
  2
CLASSES
  0
CLASS
  1
IMAGE
  2
AcDbRasterImage
  3
ISM
 90
    34943
280
     0
281
     1
  0
CLASS
  1
DICTIONARYVAR
  2
AcDbDictionaryVar
  3
ObjectDBX Classes
 90
        0
280
     0
281
     0
  0
CLASS
  1
RASTERVARIABLES
  2
AcDbRasterVariables
  3
ISM
 90
    32768
280
     0
281
     0
  0
CLASS
  1
IMAGEDEF
  2
AcDbRasterImageDef
  3
ISM
 90
    32768
280
     0
281
     0
  0
CLASS
  1
IMAGEDEF_REACTOR
  2
AcDbRasterImageDefReactor
  3
ISM
 90
    32769
280
     0
281
     0
  0
CLASS
  1
IDBUFFER
  2
AcDbIdBuffer
  3
ObjectDBX Classes
 90
    32768
280
     0
281
     0
  0
CLASS
  1
SPATIAL_FILTER
  2
AcDbSpatialFilter
  3
ObjectDBX Classes
 90
    32768
280
     0
281
     0
  0
CLASS
  1
SORTENTSTABLE
  2
AcDbSortentsTable
  3
ObjectDBX Classes
 90
        0
280
     0
281
     0
  0
CLASS
  1
LAYER_INDEX
  2
AcDbLayerIndex
  3
ObjectDBX Classes
 90
    32768
280
     0
281
     0
  0
CLASS
  1
SPATIAL_INDEX
  2
AcDbSpatialIndex
  3
ObjectDBX Classes
 90
    32768
280
     0
281
     0
  0
CLASS
  1
OBJECT_PTR
  2
CAseDLPNTableRecord
  3
ASE-LPNTableRecord
 90
    32769
280
     0
281
     0
  0
CLASS
  1
LAYOUT
  2
AcDbLayout
  3
ObjectDBX Classes
 90
        0
280
     0
281
     0
  0
CLASS
  1
PLOTSETTINGS
  2
AcDbPlotSettings
  3
ObjectDBX Classes
 90
    32768
280
     0
281
     0
  0
CLASS
  1
ACDBDICTIONARYWDFLT
  2
AcDbDictionaryWithDefault
  3
ObjectDBX Classes
 90
        0
280
     0
281
     0
  0
CLASS
  1
ACDBPLACEHOLDER
  2
AcDbPlaceHolder
  3
ObjectDBX Classes
 90
        0
280
     0
281
     0
  0
CLASS
  1
VBA_PROJECT
  2
AcDbVbaProject
  3
acad
 90
    32768
280
     0
281
     0
  0
CLASS
  1
WIPEOUT
  2
AcDbWipeout
  3
"WipeOut|Product Desc: Object Enabler for WipeOut entity                        |Company: Autodesk, Inc.                        |WEB Address: www.autodesk.com"
 90
    34943
280
     0
281
     1
  0
CLASS
  1
WIPEOUTVARIABLES
  2
AcDbWipeoutVariables
  3
"WipeOut|Product Desc:     WipeOut Dbx Application|Company:          Autodesk, Inc.|WEB Address:      www.autodesk.com"
 90
        0
280
     0
281
     0
  0
CLASS
  1
RTEXT
  2
RText
  3
RText|AutoCAD Express Tool|expresstools@autodesk.com
 90
    35839
280
     0
281
     1
  0
CLASS
  1
ARCALIGNEDTEXT
  2
AcDbArcAlignedText
  3
ATEXT|AutoCAD Express Tool|expresstools@autodesk.com
 90
    32768
280
     0
281
     1
  0
CLASS
  1
MATERIAL
  2
AcDbMaterial
  3
ObjectDBX Classes
 90
     1153
280
     0
281
     0
  0
CLASS
  1
VISUALSTYLE
  2
AcDbVisualStyle
  3
ObjectDBX Classes
 90
     4095
280
     0
281
     0
  0
CLASS
  1
TABLESTYLE
  2
AcDbTableStyle
  3
ObjectDBX Classes
 90
     4095
280
     0
281
     0
  0
CLASS
  1
SCALE
  2
AcDbScale
  3
ObjectDBX Classes
 90
     1153
280
     0
281
     0
  0
CLASS
  1
MLEADERSTYLE
  2
AcDbMLeaderStyle
  3
ACDB_MLEADERSTYLE_CLASS
 90
     4095
280
     0
281
     0
  0
CLASS
  1
CELLSTYLEMAP
  2
AcDbCellStyleMap
  3
ObjectDBX Classes
 90
     1152
280
     0
281
     0
  0
ENDSEC
  0
SECTION
  2
TABLES
  0
TABLE
  2
VPORT
  5
7
330
0
100
AcDbSymbolTable
 70
     1
  0
VPORT
  5
15
330
7
100
AcDbSymbolTableRecord
100
AcDbViewportTableRecord
  2
*ACTIVE
 70
     0
 10
0.0
 20
0.0
 11
1.0
 21
1.0
 12
31.08150394580679
 22
12.57350380864886
 13
0.0
 23
0.0
 14
1.0
 24
1.0
 15
0.0
 25
0.0
 16
0.0
 26
0.0
 36
1.0
 17
0.0
 27
0.0
 37
0.0
 40
348.0646551795321
 41
1.611330698287219
 42
50.0
 43
0.0
 44
0.0
 50
0.0
 51
0.0
 71
     0
 72
   100
 73
     1
 74
     1
 75
     0
 76
     0
 77
     0
 78
     0
281
     0
 65
     0
110
0.0
120
0.0
130
0.0
111
1.0
121
0.0
131
0.0
112
0.0
122
1.0
132
0.0
 79
     0
146
0.0
  0
ENDTAB
  0
TABLE
  2
LTYPE
  5
4
330
0
100
AcDbSymbolTable
 70
     3
  0
LTYPE
  5
11
330
4
100
AcDbSymbolTableRecord
100
AcDbLinetypeTableRecord
  2
ByBlock
 70
     0
  3

 72
    65
 73
     0
 40
0.0
  0
LTYPE
  5
12
330
4
100
AcDbSymbolTableRecord
100
AcDbLinetypeTableRecord
  2
ByLayer
 70
     0
  3

 72
    65
 73
     0
 40
0.0
  0
LTYPE
  5
13
330
4
100
AcDbSymbolTableRecord
100
AcDbLinetypeTableRecord
  2
Continuous
 70
     0
  3
Solid line
 72
    65
 73
     0
 40
0.0
  0
LTYPE
  5
2A2
330
4
100
AcDbSymbolTableRecord
100
AcDbLinetypeTableRecord
  2
CENTER
 70
     0
  3
____ _ ____ _ ____ _ ____ _ ____ _ ____ _ ____
 72
    65
 73
     4
 40
2.0
 49
1.25
 74
     0
 49
-0.25
 74
     0
 49
0.25
 74
     0
 49
-0.25
 74
     0
  0
ENDTAB
  0
TABLE
  2
LAYER
  5
2
330
0
100
AcDbSymbolTable
 70
     2
  0
LAYER
  5
14
102
{ACAD_XDICTIONARY
360
72C9
102
}
330
2
100
AcDbSymbolTableRecord
100
AcDbLayerTableRecord
  2
0
 70
     0
 62
     7
  6
Continuous
370
    -3
390
1D
  0
LAYER
  5
7B6E
330
2
100
AcDbSymbolTableRecord
100
AcDbLayerTableRecord
  2
Defpoints
 70
     0
 62
     7
  6
Continuous
290
     0
370
    -3
390
1D
  0
ENDTAB
  0
TABLE
  2
STYLE
  5
3
330
0
100
AcDbSymbolTable
 70
     1
  0
STYLE
  5
17
330
3
100
AcDbSymbolTableRecord
100
AcDbTextStyleTableRecord
  2
Standard
 70
     0
 40
0.0
 41
1.0
 50
0.0
 71
     0
 42
0.0
  3
IsonormD
  4

1001
ACAD
1000
IsonormD
1071
        0
  0
ENDTAB
  0
TABLE
  2
VIEW
  5
5
330
0
100
AcDbSymbolTable
 70
     0
  0
ENDTAB
  0
TABLE
  2
UCS
  5
6
330
0
100
AcDbSymbolTable
 70
     0
  0
ENDTAB
  0
TABLE
  2
APPID
  5
8
330
0
100
AcDbSymbolTable
 70
     5
  0
APPID
  5
16
330
8
100
AcDbSymbolTableRecord
100
AcDbRegAppTableRecord
  2
ACAD
 70
     0
  0
APPID
  5
26
330
8
100
AcDbSymbolTableRecord
100
AcDbRegAppTableRecord
  2
TopSolid_Draft
 70
     0
  0
APPID
  5
39AF
330
8
100
AcDbSymbolTableRecord
100
AcDbRegAppTableRecord
  2
ACAD_MLEADERVER
 70
     0
  0
APPID
  5
72C7
330
8
100
AcDbSymbolTableRecord
100
AcDbRegAppTableRecord
  2
DCO15
 70
     0
  0
APPID
  5
7315
330
8
100
AcDbSymbolTableRecord
100
AcDbRegAppTableRecord
  2
ACAD_EXEMPT_FROM_CAD_STANDARDS
 70
     0
  0
ENDTAB
  0
TABLE
  2
DIMSTYLE
  5
9
330
0
100
AcDbSymbolTable
 70
     2
100
AcDbDimStyleTable
 71
     1
340
18
  0
DIMSTYLE
105
18
330
9
100
AcDbSymbolTableRecord
100
AcDbDimStyleTableRecord
  2
Standard
 70
     0
 41
1.25
 42
0.0
 44
0.75
 73
     0
 74
     0
 77
     1
140
2.5
146
0.8
147
1.25
176
     7
177
     7
178
     7
271
     2
340
17
  0
ENDTAB
  0
TABLE
  2
BLOCK_RECORD
  5
1
330
0
100
AcDbSymbolTable
 70
     3
  0
BLOCK_RECORD
  5
A
102
{ACAD_XDICTIONARY
360
39B7
102
}
330
1
100
AcDbSymbolTableRecord
100
AcDbBlockTableRecord
  2
*MODEL_SPACE
340
20
  0
BLOCK_RECORD
  5
B
330
1
100
AcDbSymbolTableRecord
100
AcDbBlockTableRecord
  2
*PAPER_SPACE
340
21
  0
ENDTAB
  0
ENDSEC
  0
SECTION
  2
BLOCKS
  0
BLOCK
  5
D
330
A
100
AcDbEntity
  8
0
100
AcDbBlockBegin
  2
*MODEL_SPACE
 70
     0
 10
0.0
 20
0.0
 30
0.0
  3
*MODEL_SPACE
  1

  0
ENDBLK
  5
E
330
A
100
AcDbEntity
  8
0
100
AcDbBlockEnd
  0
BLOCK
  5
F
330
B
100
AcDbEntity
 67
     1
  8
0
100
AcDbBlockBegin
  2
*PAPER_SPACE
 70
     0
 10
0.0
 20
0.0
 30
0.0
  3
*PAPER_SPACE
  1

  0
ENDBLK
  5
10
330
B
100
AcDbEntity
 67
     1
  8
0
100
AcDbBlockEnd
  0
ENDSEC
  0
SECTION
  2
ENTITIES
  0
LINE
  5
2403
330
A
100
AcDbEntity
  8
0
  6
CENTER
 62
     1
100
AcDbLine
 10
44.24999999999999
 20
150.6485950000001
 30
0.0
 11
55.75
 21
150.6485950000001
 31
0.0
  0
LINE
  5
2404
330
A
100
AcDbEntity
  8
0
  6
CENTER
 62
     1
100
AcDbLine
 10
50.0
 20
144.8985950000001
 30
0.0
 11
50.0
 21
156.3985950000001
 31
0.0
  0
LINE
  5
2405
330
A
100
AcDbEntity
  8
0
  6
CENTER
 62
     1
100
AcDbLine
 10
103.3235949999999
 20
-4.999999999999886
 30
0.0
 11
117.3235949999999
 21
-4.999999999999886
 31
0.0
  0
LINE
  5
2406
330
A
100
AcDbEntity
  8
0
  6
CENTER
 62
     1
100
AcDbLine
 10
110.3235949999997
 20
-11.99999999999988
 30
0.0
 11
110.3235949999997
 21
2.000000000000113
 31
0.0
  0
LINE
  5
2407
330
A
100
AcDbEntity
  8
0
  6
CENTER
 62
     1
100
AcDbLine
 10
103.3235949999999
 20
75.00000000000011
 30
0.0
 11
117.3235949999999
 21
75.00000000000011
 31
0.0
  0
LINE
  5
2408
330
A
100
AcDbEntity
  8
0
  6
CENTER
 62
     1
100
AcDbLine
 10
110.3235949999997
 20
68.00000000000011
 30
0.0
 11
110.3235949999997
 21
82.00000000000011
 31
0.0
  0
LINE
  5
2409
330
A
100
AcDbEntity
  8
0
  6
CENTER
 62
     1
100
AcDbLine
 10
112.3235949999999
 20
35.00000000000011
 30
0.0
 11
126.3235949999998
 21
35.00000000000011
 31
0.0
  0
LINE
  5
240A
330
A
100
AcDbEntity
  8
0
  6
CENTER
 62
     1
100
AcDbLine
 10
119.3235949999999
 20
28.00000000000011
 30
0.0
 11
119.3235949999999
 21
42.00000000000011
 31
0.0
  0
LINE
  5
240B
330
A
100
AcDbEntity
  8
0
  6
CENTER
 62
     1
100
AcDbLine
 10
-103.723595
 20
35.00000000000011
 30
0.0
 11
-92.72359500000005
 21
35.00000000000011
 31
0.0
  0
LINE
  5
240C
330
A
100
AcDbEntity
  8
0
  6
CENTER
 62
     1
100
AcDbLine
 10
-98.22359500000022
 20
29.50000000000012
 30
0.0
 11
-98.22359500000022
 21
40.50000000000011
 31
0.0
  0
LINE
  5
240D
330
A
100
AcDbEntity
  8
0
  6
CENTER
 62
     1
100
AcDbLine
 10
-64.12359500000007
 20
-4.999999999999886
 30
0.0
 11
-54.82359500000007
 21
-4.999999999999886
 31
0.0
  0
LINE
  5
240E
330
A
100
AcDbEntity
  8
0
  6
CENTER
 62
     1
100
AcDbLine
 10
-59.47359500000004
 20
-9.649999999999891
 30
0.0
 11
-59.47359500000004
 21
-0.3499999999998806
 31
0.0
  0
LINE
  5
240F
330
A
100
AcDbEntity
  8
0
  6
CENTER
 62
     1
100
AcDbLine
 10
-64.12359500000007
 20
75.00000000000011
 30
0.0
 11
-54.82359500000007
 21
75.00000000000011
 31
0.0
  0
LINE
  5
2410
330
A
100
AcDbEntity
  8
0
  6
CENTER
 62
     1
100
AcDbLine
 10
-59.47359500000004
 20
70.35000000000014
 30
0.0
 11
-59.47359500000004
 21
79.65000000000009
 31
0.0
  0
LINE
  5
2411
330
A
100
AcDbEntity
  8
0
  6
CENTER
 62
     1
100
AcDbLine
 10
45.09191099999998
 20
-78.14859499999989
 30
0.0
 11
54.90808899999979
 21
-78.14859499999989
 31
0.0
  0
LINE
  5
2412
330
A
100
AcDbEntity
  8
0
  6
CENTER
 62
     1
100
AcDbLine
 10
50.0
 20
-83.0566849999999
 30
0.0
 11
50.0
 21
-73.24050599999989
 31
0.0
  0
LINE
  5
4E14
330
A
100
AcDbEntity
  8
0
  6
Continuous
 62
     7
100
AcDbLine
 10
168.6412969999998
 20
-102.7589039999999
 30
0.0
 11
168.331458
 21
-101.9164409999999
 31
0.0
  0
LINE
  5
4E15
330
A
100
AcDbEntity
  8
0
  6
Continuous
 62
     7
100
AcDbLine
 10
169.260974
 20
-102.2529389999998
 30
0.0
 11
168.6412969999998
 21
-102.7589039999999
 31
0.0
  0
LINE
  5
4E16
330
A
100
AcDbEntity
  8
0
  6
Continuous
 62
     7
100
AcDbLine
 10
169.5708129999997
 20
-100.9045119999999
 30
0.0
 11
169.260974
 21
-102.2529389999998
 31
0.0
  0
LINE
  5
4E17
330
A
100
AcDbEntity
  8
0
  6
Continuous
 62
     7
100
AcDbLine
 10
169.260974
 20
-100.0620489999999
 30
0.0
 11
169.5708129999997
 21
-100.9045119999999
 31
0.0
  0
LINE
  5
4E18
330
A
100
AcDbEntity
  8
0
  6
Continuous
 62
     7
100
AcDbLine
 10
168.6412969999998
 20
-100.5680129999999
 30
0.0
 11
169.260974
 21
-100.0620489999999
 31
0.0
  0
LINE
  5
4E19
330
A
100
AcDbEntity
  8
0
  6
Continuous
 62
     7
100
AcDbLine
 10
168.331458
 20
-101.9164409999999
 30
0.0
 11
168.6412969999998
 21
-100.5680129999999
 31
0.0
  0
ELLIPSE
  5
4E1A
330
A
100
AcDbEntity
  8
0
  6
Continuous
 62
     7
100
AcDbEllipse
 10
168.951136
 20
-101.4104759999999
 30
0.0
 11
-0.560000000000005
 21
-2.743428511917139
 31
0.0
210
0.0
220
0.0
230
1.0
 40
0.4082480000000002
 41
0.1604061352362826
 42
2.981186518353712
  0
LINE
  5
4E1B
330
A
100
AcDbEntity
  8
0
  6
Continuous
 62
     7
100
AcDbLine
 10
169.260974
 20
-102.2529389999998
 30
0.0
 11
168.389815
 21
-102.0751149999999
 31
0.0
  0
LINE
  5
4E1C
330
A
100
AcDbEntity
  8
0
  6
Continuous
 62
     7
100
AcDbLine
 10
169.5708129999997
 20
-100.9045119999999
 30
0.0
 11
168.6090849999998
 21
-100.7081999999999
 31
0.0
  0
LINE
  5
4E1D
330
A
100
AcDbEntity
  8
0
  6
Continuous
 62
     7
100
AcDbLine
 10
164.427691
 20
-132.5289009999999
 30
0.0
 11
164.3895569999999
 21
-132.5211179999999
 31
0.0
  0
LINE
  5
4E1E
330
A
100
AcDbEntity
  8
0
  6
Continuous
 62
     7
100
AcDbLine
 10
110.974365
 20
-52.6047449999999
 30
0.0
 11
110.974365
 21
-51.87444799999989
 31
0.0
  0
ELLIPSE
  5
4E1F
330
A
100
AcDbEntity
  8
0
  6
Continuous
 62
     7
100
AcDbEllipse
 10
114.194303
 20
-52.53171499999988
 30
0.0
 11
2.276839917504046
 21
-2.78854800748715
 31
0.0000000000000001
210
0.0
220
0.0
230
0.9999999999999998
 40
0.816497
 41
2.356194489553214
 42
3.141592653589767
  0
LINE
  5
4E20
330
A
100
AcDbEntity
  8
0
  6
Continuous
 62
     7
100
AcDbLine
 10
114.194303
 20
-49.2453799999999
 30
0.0
 11
167.5021639999997
 21
-60.12680099999989
 31
0.0
  0
ELLIPSE
  5
4E21
330
A
100
AcDbEntity
  8
0
  6
Continuous
 62
     7
100
AcDbEllipse
 10
167.5021639999997
 20
-60.85709799999989
 30
0.0
 11
0.5059644261120601
 21
-0.619677334997154
 31
0.0
210
0.0
220
0.0
230
1.0
 40
0.816497
 41
0.7853981627582638
 42
2.356194489552977
  0
LINE
  5
4E22
330
A
100
AcDbEntity
  8
0
  6
Continuous
 62
     7
100
AcDbLine
 10
168.2177049999997
 20
-61.0031569999999
 30
0.0
 11
168.2177049999997
 21
-64.27967399999989
 31
0.0
  0
ELLIPSE
  5
4E23
330
A
100
AcDbEntity
  8
0
  6
Continuous
 62
     7
100
AcDbEllipse
 10
162.4933709999997
 20
-64.21646299999986
 30
0.0
 11
3.035786556672027
 21
-3.718064009982838
 31
0.0000000000000002
210
0.0
220
0.0000000000000001
230
1.0
 40
0.816497
 41
0.8414425004242517
 42
2.356194489553198
  0
LINE
  5
4E24
330
A
100
AcDbEntity
  8
0
  6
Continuous
 62
     7
100
AcDbLine
 10
162.4933709999997
 20
-59.8346829999999
 30
0.0
 11
115.9831580000001
 21
-50.34082499999988
 31
0.0
  0
ELLIPSE
  5
4E25
330
A
100
AcDbEntity
  8
0
  6
Continuous
 62
     7
100
AcDbEllipse
 10
115.9831580000001
 20
-54.7226049999999
 30
0.0
 11
3.035786556672026
 21
-3.718064009982783
 31
0.0
210
0.0000000000000001
220
0.0
230
0.9999999999999998
 40
0.816497
 41
2.356194489553193
 42
3.141592653589767
  0
LINE
  5
4E26
330
A
100
AcDbEntity
  8
0
  6
Continuous
 62
     7
100
AcDbLine
 10
148.9707959999999
 20
-108.7428929999999
 30
0.0
 11
148.8444129999999
 21
-108.7170949999999
 31
0.0
  0
LINE
  5
4E27
330
A
100
AcDbEntity
  8
0
  6
Continuous
 62
     9
100
AcDbLine
 10
167.5021639999997
 20
-60.12680099999989
 30
0.0
 11
168.575476
 21
-59.25044499999987
 31
0.0
  0
ELLIPSE
  5
4E28
330
A
100
AcDbEntity
  8
0
  6
Continuous
 62
     9
100
AcDbEllipse
 10
168.575476
 20
-59.98074199999988
 30
0.0
 11
-0.5059644261120601
 21
0.619677334997154
 31
0.0
210
0.0
220
0.0
230
1.0
 40
0.816497
 41
3.926990816347973
 42
5.497787143143043
  0
LINE
  5
4E29
330
A
100
AcDbEntity
  8
0
  6
Continuous
 62
     9
100
AcDbLine
 10
169.2910179999998
 20
-60.12680099999989
 30
0.0
 11
168.2177049999997
 21
-61.0031569999999
 31
0.0
  0
LINE
  5
4E2A
330
A
100
AcDbEntity
  8
0
  6
Continuous
 62
     9
100
AcDbLine
 10
116.3409279999999
 20
-47.49266799999986
 30
0.0
 11
114.194303
 21
-49.2453799999999
 31
0.0
  0
LINE
  5
4E2B
330
A
100
AcDbEntity
  8
0
  6
Continuous
 62
     9
100
AcDbLine
 10
167.5021639999997
 20
-57.93591099999989
 30
0.0
 11
116.3409279999999
 21
-47.49266799999986
 31
0.0
  0
ELLIPSE
  5
4E2C
330
A
100
AcDbEntity
  8
0
  6
Continuous
 62
     9
100
AcDbEllipse
 10
166.4288509999997
 20
-58.81226699999988
 30
0.0
 11
-2.400000000000068
 21
-0.0000000007514545
 31
0.0000000000000002
210
0.0000000000000001
220
0.0
230
1.0
 40
0.4082480000000002
 41
2.677945044461024
 42
4.248741371256278
  0
LINE
  5
4E2D
330
A
100
AcDbEntity
  8
0
  6
Continuous
 62
     9
100
AcDbLine
 10
169.2910179999998
 20
-63.74658999999988
 30
0.0
 11
169.2910179999998
 21
-60.12680099999989
 31
0.0
  0
ELLIPSE
  5
4E2E
330
A
100
AcDbEntity
  8
0
  6
Continuous
 62
     9
100
AcDbEllipse
 10
166.4288509999997
 20
-59.54256399999988
 30
0.0
 11
3.200000000000091
 21
0.0000000010019208
 31
0.0
210
0.0
220
0.0000000000000001
230
1.0
 40
0.4082480000000002
 41
5.819537698050967
 42
6.283191725847744
  0
ELLIPSE
  5
4E2F
330
A
100
AcDbEntity
  8
0
  6
Continuous
 62
     9
100
AcDbEllipse
 10
167.5021639999997
 20
-58.66620799999989
 30
0.0
 11
-0.160000000000049
 21
-0.7838367176906114
 31
0.0
210
0.0
220
0.0
230
1.0
 40
0.4082480000000002
 41
3.141591517949133
 42
3.605240263230095
  0
ELLIPSE
  5
4E30
330
A
100
AcDbEntity
  8
0
  6
Continuous
 62
     9
100
AcDbEllipse
 10
116.3409279999999
 20
-48.22296399999988
 30
0.0
 11
0.160000000000049
 21
0.7838367176906114
 31
0.0
210
0.0
220
0.0
230
1.0
 40
0.4082480000000002
 41
0.000000000000007
 42
0.4636476096398979
  0
ELLIPSE
  5
4E31
330
A
100
AcDbEntity
  8
0
  6
Continuous
 62
     7
100
AcDbEllipse
 10
116.1620429999997
 20
-54.57654599999989
 30
0.0
 11
3.035786556672026
 21
-3.718064009982868
 31
0.0000000000000003
210
0.0
220
0.0000000000000001
230
1.0
 40
0.8164970000000003
 41
3.171059700365673
 42
3.717120225645977
  0
ELLIPSE
  5
4E32
330
A
100
AcDbEntity
  8
0
  6
Continuous
 62
     7
100
AcDbEllipse
 10
115.9831580000001
 20
-54.7226049999999
 30
0.0
 11
3.035786556672027
 21
-3.718064009982838
 31
0.0000000000000002
210
0.0
220
0.0
230
1.0
 40
0.816497
 41
3.141592653589767
 42
3.674310562713662
  0
ELLIPSE
  5
4E33
330
A
100
AcDbEntity
  8
0
  6
Continuous
 62
     7
100
AcDbEllipse
 10
114.194303
 20
-52.53171499999988
 30
0.0
 11
2.276839917504046
 21
-2.78854800748715
 31
0.0000000000000001
210
0.0
220
0.0000000000000001
230
0.9999999999999998
 40
0.816497
 41
3.141592653589767
 42
3.926990816348103
  0
ELLIPSE
  5
4E34
330
A
100
AcDbEntity
  8
0
  6
Continuous
 62
     9
100
AcDbEllipse
 10
116.3409279999999
 20
-50.77900299999988
 30
0.0
 11
2.276839917504046
 21
-2.78854800748715
 31
0.0000000000000001
210
0.0
220
0.0000000000000001
230
0.9999999999999998
 40
0.816497
 41
2.356194489553214
 42
3.141592653589767
  0
ELLIPSE
  5
4E35
330
A
100
AcDbEntity
  8
0
  6
Continuous
 62
     7
100
AcDbEllipse
 10
115.911603
 20
-55.62086999999988
 30
0.0
 11
-3.035786556672027
 21
3.718064009982838
 31
-0.0000000000000003
210
-0.0000000000000001
220
0.0
230
1.0
 40
0.816497
 41
0.0
 42
0.3092791103598756
  0
LINE
  5
4E36
330
A
100
AcDbEntity
  8
0
  6
Continuous
 62
     7
100
AcDbLine
 10
115.911603
 20
-51.23908999999989
 30
0.0
 11
162.0640459999999
 21
-60.65991799999989
 31
0.0
  0
ELLIPSE
  5
4E37
330
A
100
AcDbEntity
  8
0
  6
Continuous
 62
     7
100
AcDbEllipse
 10
162.0640459999999
 20
-64.67654999999988
 30
0.0
 11
-2.782804343615996
 21
3.408225342484219
 31
-0.0000000000000001
210
-0.0000000000000001
220
0.0
230
1.0
 40
0.8164970000000002
 41
4.019474520796435
 42
5.497787142602871
  0
LINE
  5
4E38
330
A
100
AcDbEntity
  8
0
  6
Continuous
 62
     9
100
AcDbLine
 10
162.0640459999999
 20
-60.65991799999989
 30
0.0
 11
162.4218169999997
 21
-60.36779899999988
 31
0.0
  0
LINE
  5
4E39
330
A
100
AcDbEntity
  8
0
  6
Continuous
 62
     9
100
AcDbLine
 10
162.4218169999997
 20
-60.36779899999988
 30
0.0
 11
162.779588
 21
-60.07568099999989
 31
0.0
  0
ELLIPSE
  5
4E3A
330
A
100
AcDbEntity
  8
0
  6
Continuous
 62
     7
100
AcDbEllipse
 10
162.779588
 20
-64.09231299999987
 30
0.0
 11
-2.782804343615996
 21
3.40822534248425
 31
-0.0000000000000003
210
-0.0000000000000001
220
0.0
230
1.0
 40
0.816497
 41
3.926990815807977
 42
5.497787142602876
  0
LINE
  5
4E3B
330
A
100
AcDbEntity
  8
0
  6
Continuous
 62
     9
100
AcDbLine
 10
115.911603
 20
-51.23908999999989
 30
0.0
 11
116.2693739999999
 21
-50.94697099999987
 31
0.0
  0
LINE
  5
4E3C
330
A
100
AcDbEntity
  8
0
  6
Continuous
 62
     9
100
AcDbLine
 10
116.2693739999999
 20
-50.94697099999987
 30
0.0
 11
116.6271449999997
 21
-50.65485299999989
 31
0.0
  0
LINE
  5
4E3D
330
A
100
AcDbEntity
  8
0
  6
Continuous
 62
     7
100
AcDbLine
 10
116.6271449999997
 20
-50.65485299999989
 30
0.0
 11
162.779588
 21
-60.07568099999989
 31
0.0
  0
ELLIPSE
  5
4E3E
330
A
100
AcDbEntity
  8
0
  6
Continuous
 62
     7
100
AcDbEllipse
 10
162.0640459999999
 20
-64.67654999999988
 30
0.0
 11
-2.782804343615996
 21
3.408225342484278
 31
-0.0000000000000002
210
-0.0000000000000001
220
0.0
230
1.0
 40
0.816497
 41
2.988379735467447
 42
3.000444234799461
  0
ELLIPSE
  5
4E3F
330
A
100
AcDbEntity
  8
0
  6
Continuous
 62
     7
100
AcDbEllipse
 10
115.911603
 20
-55.62086999999988
 30
0.0
 11
-3.035786556672027
 21
3.718064009982838
 31
-0.0000000000000001
210
0.0
220
0.0000000000000001
230
1.0
 40
0.816497
 41
5.49778714260286
 42
6.283185307179584
  0
ELLIPSE
  5
4E40
330
A
100
AcDbEntity
  8
0
  6
Continuous
 62
     7
100
AcDbEllipse
 10
116.6271449999997
 20
-55.03663299999988
 30
0.0
 11
-3.035786556672027
 21
3.718064009982838
 31
-0.0000000000000001
210
0.0
220
0.0000000000000001
230
1.0
 40
0.816497
 41
5.497787142602887
 42
6.283185307179584
  0
ELLIPSE
  5
4E41
330
A
100
AcDbEntity
  8
0
  6
Continuous
 62
     7
100
AcDbEllipse
 10
162.0640459999999
 20
-127.4820699999999
 30
0.0
 11
-2.782804343615996
 21
3.408225342484263
 31
-0.0000000000000002
210
-0.0000000000000001
220
0.0
230
1.0
 40
0.816497
 41
2.988379745936426
 42
3.000444245362548
  0
LINE
  5
4E42
330
A
100
AcDbEntity
  8
0
  6
Continuous
 62
     7
100
AcDbLine
 10
116.2693739999999
 20
-50.94697099999987
 30
0.0
 11
162.4218169999997
 21
-60.36779899999988
 31
0.0
  0
ELLIPSE
  5
4E43
330
A
100
AcDbEntity
  8
0
  6
Continuous
 62
     7
100
AcDbEllipse
 10
162.4218169999997
 20
-64.38443099999989
 30
0.0
 11
-2.782804343615996
 21
3.40822534248425
 31
-0.0000000000000001
210
0.0
220
0.0
230
1.0
 40
0.816497
 41
3.976172625643275
 42
5.497787142598512
  0
LINE
  5
4E44
330
A
100
AcDbEntity
  8
0
  6
Continuous
 62
     9
100
AcDbLine
 10
162.4218169999997
 20
-60.36779899999988
 30
0.0
 11
162.779588
 21
-60.07568099999989
 31
0.0
  0
ELLIPSE
  5
4E45
330
A
100
AcDbEntity
  8
0
  6
Continuous
 62
     7
100
AcDbEllipse
 10
162.779588
 20
-64.09231299999987
 30
0.0
 11
-2.782804343615996
 21
3.408225342484219
 31
-0.0000000000000002
210
0.0
220
0.0
230
1.0
 40
0.8164970000000002
 41
3.926990815803602
 42
5.497787142598512
  0
LINE
  5
4E46
330
A
100
AcDbEntity
  8
0
  6
Continuous
 62
     9
100
AcDbLine
 10
116.2693739999999
 20
-50.94697099999987
 30
0.0
 11
116.6271449999997
 21
-50.65485299999989
 31
0.0
  0
LINE
  5
4E47
330
A
100
AcDbEntity
  8
0
  6
Continuous
 62
     7
100
AcDbLine
 10
116.6271449999997
 20
-50.65485299999989
 30
0.0
 11
162.779588
 21
-60.07568099999989
 31
0.0
  0
ELLIPSE
  5
4E48
330
A
100
AcDbEntity
  8
0
  6
Continuous
 62
     7
100
AcDbEllipse
 10
116.2693739999999
 20
-55.32875199999989
 30
0.0
 11
-3.035786556672026
 21
3.718064009982811
 31
-0.0000000000000003
210
0.0
220
0.0
230
1.0
 40
0.8164970000000002
 41
5.49778714259849
 42
6.283185307179584
  0
ELLIPSE
  5
4E49
330
A
100
AcDbEntity
  8
0
  6
Continuous
 62
     7
100
AcDbEllipse
 10
116.6271449999997
 20
-55.03663299999988
 30
0.0
 11
-3.035786556672027
 21
3.718064009982756
 31
-0.0000000000000003
210
0.0
220
0.0
230
0.9999999999999998
 40
0.8164970000000002
 41
5.497787142598506
 42
6.283185307179584
  0
ELLIPSE
  5
4E4A
330
A
100
AcDbEntity
  8
0
  6
Continuous
 62
     7
100
AcDbEllipse
 10
144.9089329999999
 20
-90.0214989999999
 30
0.0
 11
-4.560000000000005
 21
-0.0000000051482707
 31
0.0
210
0.0
220
0.0
230
1.0
 40
0.4082480000000002
 41
3.605240265356118
 42
3.745284746561736
  0
ELLIPSE
  5
4E4B
330
A
100
AcDbEntity
  8
0
  6
Continuous
 62
     7
100
AcDbEllipse
 10
144.9089329999999
 20
-90.0214989999999
 30
0.0
 11
4.240000000000021
 21
0.0000000047869764
 31
-0.0000000000000003
210
0.0000000000000001
220
0.0
230
1.0
 40
0.4082480000000002
 41
5.819537695413258
 42
5.992286801876223
  0
ELLIPSE
  5
4E4C
330
A
100
AcDbEntity
  8
0
  6
Continuous
 62
     7
100
AcDbEllipse
 10
144.9089329999999
 20
-90.0214989999999
 30
0.0
 11
4.240000000000021
 21
0.0000000047869764
 31
-0.0000000000000003
210
0.0000000000000001
220
0.0
230
1.0
 40
0.4082480000000002
 41
0.2908985046371907
 42
0.5616225885258901
  0
ELLIPSE
  5
4E4D
330
A
100
AcDbEntity
  8
0
  6
Continuous
 62
     7
100
AcDbEllipse
 10
144.9089329999999
 20
-90.0214989999999
 30
0.0
 11
4.240000000000021
 21
0.0000000047869764
 31
0.0
210
0.0
220
0.0
230
1.0
 40
0.4082480000000002
 41
5.411553872034671
 42
5.819537695413258
  0
ELLIPSE
  5
4E4E
330
A
100
AcDbEntity
  8
0
  6
Continuous
 62
     7
100
AcDbEllipse
 10
144.9089329999999
 20
-90.24058799999989
 30
0.0
 11
-4.000000000000004
 21
-0.0000000045160264
 31
0.0
210
0.0
220
0.0
230
1.0
 40
0.4082480000000002
 41
2.737104829114318
 42
3.1415926535898
  0
ELLIPSE
  5
4E4F
330
A
100
AcDbEntity
  8
0
  6
Continuous
 62
     7
100
AcDbEllipse
 10
144.9089329999999
 20
-90.24058799999989
 30
0.0
 11
-4.000000000000004
 21
-0.0000000045160264
 31
0.0
210
0.0
220
0.0
230
1.0
 40
0.4082480000000002
 41
3.362566882557976
 42
3.736651616337832
  0
ELLIPSE
  5
4E50
330
A
100
AcDbEntity
  8
0
  6
Continuous
 62
     7
100
AcDbEllipse
 10
144.9089329999999
 20
-90.24058799999989
 30
0.0
 11
-4.000000000000004
 21
-0.0000000045160264
 31
0.0
210
0.0
220
0.0
230
1.0
 40
0.4082480000000002
 41
3.1415926535898
 42
3.362566882557976
  0
ELLIPSE
  5
4E51
330
A
100
AcDbEntity
  8
0
  6
Continuous
 62
     7
100
AcDbEllipse
 10
144.9089329999999
 20
-97.83567399999988
 30
0.0
 11
-4.800000000000026
 21
-0.0000000054192206
 31
-0.0000000000000003
210
-0.0000000000000001
220
0.0
230
1.0
 40
0.4082480000000002
 41
1.548433782249728
 42
1.604116390620315
  0
ELLIPSE
  5
4E52
330
A
100
AcDbEntity
  8
0
  6
Continuous
 62
     7
100
AcDbEllipse
 10
144.9089329999999
 20
-98.05476299999988
 30
0.0
 11
4.560000000000005
 21
0.0000000051482707
 31
0.0000000000000003
210
-0.0000000000000001
220
0.0
230
1.0
 40
0.4082480000000002
 41
4.688849247789742
 42
4.747463433239961
  0
ELLIPSE
  5
4E53
330
A
100
AcDbEntity
  8
0
  6
Continuous
 62
     9
100
AcDbEllipse
 10
144.9089329999999
 20
-83.81397599999989
 30
0.0
 11
2.399999999999957
 21
0.0000000016694979
 31
0.0000000000000003
210
-0.0000000000000001
220
0.0
230
1.0
 40
0.4082480000000002
 41
5.218159227998928
 42
6.283200048756665
  0
ELLIPSE
  5
4E54
330
A
100
AcDbEntity
  8
0
  6
Continuous
 62
     9
100
AcDbEllipse
 10
144.9089329999999
 20
-104.2622849999999
 30
0.0
 11
-2.400000000000068
 21
-0.0000000016694979
 31
-0.0000000000000002
210
-0.0000000000000001
220
0.0
230
1.0
 40
0.4082480000000002
 41
2.07656657068359
 42
2.698608223037398
  0
ELLIPSE
  5
4E55
330
A
100
AcDbEntity
  8
0
  6
Continuous
 62
     7
100
AcDbEllipse
 10
144.9089329999999
 20
-90.75179499999988
 30
0.0
 11
-4.000000000000004
 21
-0.0000000036492476
 31
0.0
210
0.0
220
0.0
230
1.0
 40
0.4082480000000002
 41
3.298763705252141
 42
4.068887871502949
  0
ELLIPSE
  5
4E56
330
A
100
AcDbEntity
  8
0
  6
Continuous
 62
     7
100
AcDbEllipse
 10
144.9089329999999
 20
-90.75179499999988
 30
0.0
 11
2.400000000000068
 21
0.0000000021895541
 31
0.0000000000000002
210
-0.0000000000000001
220
0.0
230
1.0
 40
0.4082480000000002
 41
5.218159226646476
 42
6.283185307179584
  0
ELLIPSE
  5
4E57
330
A
100
AcDbEntity
  8
0
  6
Continuous
 62
     7
100
AcDbEllipse
 10
173.7810429999999
 20
-97.4668739999999
 30
0.0
 11
-0.560000000000005
 21
-2.743428511917153
 31
0.0
210
0.0
220
0.0
230
1.0
 40
0.4082480000000002
 41
2.034443936433904
 42
3.141592653589794
  0
ELLIPSE
  5
4E58
330
A
100
AcDbEntity
  8
0
  6
Continuous
 62
     7
100
AcDbEllipse
 10
173.7810429999999
 20
-97.4668739999999
 30
0.0
 11
-0.560000000000005
 21
-2.743428511917153
 31
0.0
210
0.0
220
0.0
230
1.0
 40
0.4082480000000002
 41
3.141592653589794
 42
3.821200762009056
  0
ELLIPSE
  5
4E59
330
A
100
AcDbEntity
  8
0
  6
Continuous
 62
     7
100
AcDbEllipse
 10
173.7810429999999
 20
-97.4668739999999
 30
0.0
 11
-0.560000000000005
 21
-2.743428511917153
 31
0.0000000000000002
210
0.0
220
0.0000000000000001
230
1.0
 40
0.4082480000000002
 41
0.1604061352365187
 42
2.034443936433904
  0
LINE
  5
4E5A
330
A
100
AcDbEntity
  8
0
  6
Continuous
 62
     7
100
AcDbLine
 10
173.2443859999999
 20
-97.27259599999989
 30
0.0
 11
173.7810429999999
 21
-96.20196299999989
 31
0.0
  0
LINE
  5
4E5B
330
A
100
AcDbEntity
  8
0
  6
Continuous
 62
     7
100
AcDbLine
 10
173.2443859999999
 20
-98.5375069999999
 30
0.0
 11
173.2443859999999
 21
-97.27259599999989
 31
0.0
  0
LINE
  5
4E5C
330
A
100
AcDbEntity
  8
0
  6
Continuous
 62
     7
100
AcDbLine
 10
173.7810429999999
 20
-98.7317849999999
 30
0.0
 11
173.2443859999999
 21
-98.5375069999999
 31
0.0
  0
LINE
  5
4E5D
330
A
100
AcDbEntity
  8
0
  6
Continuous
 62
     7
100
AcDbLine
 10
174.3176989999998
 20
-97.66115099999989
 30
0.0
 11
173.7810429999999
 21
-98.7317849999999
 31
0.0
  0
LINE
  5
4E5E
330
A
100
AcDbEntity
  8
0
  6
Continuous
 62
     7
100
AcDbLine
 10
174.3176989999998
 20
-96.39623999999988
 30
0.0
 11
174.3176989999998
 21
-97.66115099999989
 31
0.0
  0
LINE
  5
4E5F
330
A
100
AcDbEntity
  8
0
  6
Continuous
 62
     7
100
AcDbLine
 10
173.7810429999999
 20
-96.20196299999989
 30
0.0
 11
174.3176989999998
 21
-96.39623999999988
 31
0.0
  0
LINE
  5
4E60
330
A
100
AcDbEntity
  8
0
  6
Continuous
 62
     7
100
AcDbLine
 10
174.3176989999998
 20
-96.39623999999988
 30
0.0
 11
173.7425119999997
 21
-96.27883099999991
 31
0.0
  0
LINE
  5
4E61
330
A
100
AcDbEntity
  8
0
  6
Continuous
 62
     7
100
AcDbLine
 10
174.3176989999998
 20
-97.66115099999989
 30
0.0
 11
173.2443859999999
 21
-97.4420619999999
 31
0.0
  0
LINE
  5
4E62
330
A
100
AcDbEntity
  8
0
  6
Continuous
 62
     7
100
AcDbLine
 10
144.3722769999997
 20
-93.36260599999988
 30
0.0
 11
144.3722769999997
 21
-101.8523059999999
 31
0.0
  0
LINE
  5
4E63
330
A
100
AcDbEntity
  8
0
  6
Continuous
 62
     7
100
AcDbLine
 10
147.0555579999996
 20
-110.1776889999998
 30
0.0
 11
148.9707959999999
 21
-108.6139039999999
 31
0.0
  0
LINE
  5
4E64
330
A
100
AcDbEntity
  8
0
  6
Continuous
 62
     7
100
AcDbLine
 10
147.0555579999996
 20
-112.8432719999999
 30
0.0
 11
147.0555579999996
 21
-110.1776889999998
 31
0.0
  0
LINE
  5
4E65
330
A
100
AcDbEntity
  8
0
  6
Continuous
 62
     7
100
AcDbLine
 10
146.679899
 20
-113.1499959999999
 30
0.0
 11
147.0555579999996
 21
-112.8432719999999
 31
0.0
  0
LINE
  5
4E66
330
A
100
AcDbEntity
  8
0
  6
Continuous
 62
     7
100
AcDbLine
 10
146.3400239999998
 20
-111.4922239999998
 30
0.0
 11
146.3400239999998
 21
-112.3320659999999
 31
0.0
  0
ELLIPSE
  5
4E67
330
A
100
AcDbEntity
  8
0
  6
Continuous
 62
     7
100
AcDbEllipse
 10
145.982253
 20
-111.7843429999999
 30
0.0
 11
-0.1600000000391288
 21
-0.7838367176826039
 31
0.0
210
0.0000000000000001
220
0.0
230
1.0
 40
0.4082480000000002
 41
3.141592653589516
 42
3.352580668536267
  0
LINE
  5
4E68
330
A
100
AcDbEntity
  8
0
  6
Continuous
 62
     7
100
AcDbLine
 10
144.8016019999998
 20
-100.5158629999998
 30
0.0
 11
145.0688400000001
 21
-100.2976639999998
 31
0.0
  0
LINE
  5
4E69
330
A
100
AcDbEntity
  8
0
  6
Continuous
 62
     7
100
AcDbLine
 10
146.071688
 20
-106.2340859999999
 30
0.0
 11
147.5869729999998
 21
-104.9968609999999
 31
0.0
  0
LINE
  5
4E6A
330
A
100
AcDbEntity
  8
0
  6
Continuous
 62
     7
100
AcDbLine
 10
148.128871
 20
-89.40074599999988
 30
0.0
 11
148.9707959999999
 21
-88.71331699999988
 31
0.0
  0
LINE
  5
4E6B
330
A
100
AcDbEntity
  8
0
  6
Continuous
 62
     7
100
AcDbLine
 10
148.128871
 20
-89.40074599999988
 30
0.0
 11
148.128871
 21
-82.64550099999988
 31
0.0
  0
LINE
  5
4E6C
330
A
100
AcDbEntity
  8
0
  6
Continuous
 62
     7
100
AcDbLine
 10
146.071688
 20
-84.3251839999999
 30
0.0
 11
148.128871
 21
-82.64550099999988
 31
0.0
  0
LINE
  5
4E6D
330
A
100
AcDbEntity
  8
0
  6
Continuous
 62
     7
100
AcDbLine
 10
144.8016019999998
 20
-93.01206399999987
 30
0.0
 11
144.8016019999998
 21
-100.5158629999998
 31
0.0
  0
LINE
  5
4E6E
330
A
100
AcDbEntity
  8
0
  6
Continuous
 62
     7
100
AcDbLine
 10
148.128871
 20
-89.40074599999988
 30
0.0
 11
147.3089329999996
 21
-89.23337699999988
 31
0.0
  0
ELLIPSE
  5
4E6F
330
A
100
AcDbEntity
  8
0
  6
Continuous
 62
     7
100
AcDbEllipse
 10
145.982253
 20
-111.7843429999999
 30
0.0
 11
-0.1600000000391288
 21
-0.7838367176826039
 31
0.0
210
0.0000000000000001
220
0.0
230
1.0
 40
0.4082480000000002
 41
2.034443936793725
 42
3.141592653589516
  0
LINE
  5
4E70
330
A
100
AcDbEntity
  8
0
  6
Continuous
 62
     9
100
AcDbLine
 10
146.3400239999998
 20
-111.4922239999998
 30
0.0
 11
146.071688
 21
-111.4374509999999
 31
0.0
  0
ELLIPSE
  5
4E71
330
A
100
AcDbEntity
  8
0
  6
Continuous
 62
     7
100
AcDbEllipse
 10
174.1388129999997
 20
-97.5399039999999
 30
0.0
 11
-0.560000000000005
 21
-2.743428511917166
 31
0.0
210
0.0
220
0.0
230
1.0
 40
0.4082480000000002
 41
4.128839038827848
 42
6.223234141221316
  0
LINE
  5
4E72
330
A
100
AcDbEntity
  8
0
  6
Continuous
 62
     7
100
AcDbLine
 10
173.5127139999998
 20
-100.2647059999999
 30
0.0
 11
173.5127139999998
 21
-134.5659479999999
 31
0.0
  0
LINE
  5
4E73
330
A
100
AcDbEntity
  8
0
  6
Continuous
 62
     7
100
AcDbLine
 10
173.5127139999998
 20
-134.5659479999999
 30
0.0
 11
167.7883799999999
 21
-139.2398479999999
 31
0.0
  0
LINE
  5
4E74
330
A
100
AcDbEntity
  8
0
  6
Continuous
 62
     7
100
AcDbLine
 10
167.7883799999999
 20
-139.2398479999999
 30
0.0
 11
167.7883799999999
 21
-66.21017299999988
 31
0.0
  0
LINE
  5
4E75
330
A
100
AcDbEntity
  8
0
  6
Continuous
 62
     7
100
AcDbLine
 10
173.5127139999998
 20
-61.53627399999987
 30
0.0
 11
167.7883799999999
 21
-66.21017299999988
 31
0.0
  0
LINE
  5
4E76
330
A
100
AcDbEntity
  8
0
  6
Continuous
 62
     7
100
AcDbLine
 10
173.5127139999998
 20
-61.53627399999987
 30
0.0
 11
173.5127139999998
 21
-95.83751699999988
 31
0.0
  0
ELLIPSE
  5
4E77
330
A
100
AcDbEntity
  8
0
  6
Continuous
 62
     7
100
AcDbEllipse
 10
169.308907
 20
-101.4835059999999
 30
0.0
 11
-0.560000000000005
 21
-2.743428511917153
 31
0.0
210
0.0
220
0.0
230
1.0
 40
0.4082480000000002
 41
0.0000000000001458
 42
0.4636476096400398
  0
ELLIPSE
  5
4E78
330
A
100
AcDbEntity
  8
0
  6
Continuous
 62
     7
100
AcDbEllipse
 10
157.985458
 20
-96.41524699999989
 30
0.0
 11
-0.1011928852224786
 21
0.1239354669994586
 31
0.0
210
0.0
220
0.0
230
1.0
 40
0.816497
 41
3.926990816347995
 42
5.497787143142616
  0
LINE
  5
4E79
330
A
100
AcDbEntity
  8
0
  6
Continuous
 62
     7
100
AcDbLine
 10
153.8353159999997
 20
-95.42204299999989
 30
0.0
 11
157.985458
 21
-96.2691869999999
 31
0.0
  0
LINE
  5
4E7A
330
A
100
AcDbEntity
  8
0
  6
Continuous
 62
     9
100
AcDbLine
 10
153.8353159999997
 20
-82.3497309999999
 30
0.0
 11
153.8353159999997
 21
-95.42204299999989
 31
0.0
  0
LINE
  5
4E7B
330
A
100
AcDbEntity
  8
0
  6
Continuous
 62
     7
100
AcDbLine
 10
153.8353159999997
 20
-82.3497309999999
 30
0.0
 11
163.5609119999997
 21
-84.33495999999989
 31
0.0
  0
LINE
  5
4E99
330
A
100
AcDbEntity
  8
0
  6
Continuous
 62
     7
100
AcDbLine
 10
164.427691
 20
-83.78159399999987
 30
0.0
 11
164.427691
 21
-65.5241749999999
 31
0.0
  0
LINE
  5
4E9A
330
A
100
AcDbEntity
  8
0
  6
Continuous
 62
     7
100
AcDbLine
 10
167.7883799999999
 20
-66.21017299999988
 30
0.0
 11
164.427691
 21
-65.5241749999999
 31
0.0
  0
LINE
  5
4E9B
330
A
100
AcDbEntity
  8
0
  6
Continuous
 62
     7
100
AcDbLine
 10
167.7883799999999
 20
-139.2398479999999
 30
0.0
 11
164.427691
 21
-138.5538499999998
 31
0.0
  0
LINE
  5
4E9C
330
A
100
AcDbEntity
  8
0
  6
Continuous
 62
     7
100
AcDbLine
 10
164.427691
 20
-120.2964309999999
 30
0.0
 11
164.427691
 21
-138.5538499999998
 31
0.0
  0
LINE
  5
4EC2
330
A
100
AcDbEntity
  8
0
  6
Continuous
 62
     7
100
AcDbLine
 10
153.8353159999997
 20
-117.4039749999999
 30
0.0
 11
163.5609119999997
 21
-119.3892039999999
 31
0.0
  0
LINE
  5
4EC3
330
A
100
AcDbEntity
  8
0
  6
Continuous
 62
     9
100
AcDbLine
 10
153.8353159999997
 20
-106.5767499999999
 30
0.0
 11
153.8353159999997
 21
-117.4039749999999
 31
0.0
  0
ELLIPSE
  5
4EC4
330
A
100
AcDbEntity
  8
0
  6
Continuous
 62
     7
100
AcDbEllipse
 10
156.4112669999997
 20
-59.87119799999987
 30
0.0
 11
16.00000000000002
 21
0.0000000050096316
 31
0.0
210
0.0
220
0.0
230
1.0
 40
0.4082480000000002
 41
6.28318530717958
 42
6.446816609151372
  0
ELLIPSE
  5
4EC5
330
A
100
AcDbEntity
  8
0
  6
Continuous
 62
     7
100
AcDbEllipse
 10
171.5449749999996
 20
-58.39599799999987
 30
0.0
 11
-1.199999999999978
 21
-0.0000000003757272
 31
0.0
210
0.0
220
0.0000000000000001
230
1.0
 40
0.4082480000000002
 41
2.145762633806933
 42
2.677945044461098
  0
LINE
  5
4EC6
330
A
100
AcDbEntity
  8
0
  6
Continuous
 62
     7
100
AcDbLine
 10
172.6182870000002
 20
-58.61508699999991
 30
0.0
 11
182.099215
 21
-50.87394199999988
 31
0.0
  0
LINE
  5
4EC7
330
A
100
AcDbEntity
  8
0
  6
Continuous
 62
     7
100
AcDbLine
 10
182.099215
 20
-50.87394199999988
 30
0.0
 11
185.676924
 21
-51.60423799999986
 31
0.0
  0
LINE
  5
4EC8
330
A
100
AcDbEntity
  8
0
  6
Continuous
 62
     7
100
AcDbLine
 10
185.676924
 20
-51.60423799999986
 30
0.0
 11
179.95259
 21
-56.27813799999987
 31
0.0
  0
LINE
  5
4EC9
330
A
100
AcDbEntity
  8
0
  6
Continuous
 62
     7
100
AcDbLine
 10
179.5948190000001
 20
-56.20510799999988
 30
0.0
 11
179.95259
 21
-56.27813799999987
 31
0.0
  0
LINE
  5
4ECA
330
A
100
AcDbEntity
  8
0
  6
Continuous
 62
     7
100
AcDbLine
 10
173.154944
 20
-61.46324399999989
 30
0.0
 11
179.5948190000001
 21
-56.20510799999988
 31
0.0
  0
LINE
  5
4ECB
330
A
100
AcDbEntity
  8
0
  6
Continuous
 62
     7
100
AcDbLine
 10
173.5127139999998
 20
-61.53627399999987
 30
0.0
 11
173.154944
 21
-61.46324399999989
 31
0.0
  0
ELLIPSE
  5
4ECC
330
A
100
AcDbEntity
  8
0
  6
Continuous
 62
     7
100
AcDbEllipse
 10
156.4112669999997
 20
-59.87119799999987
 30
0.0
 11
16.00000000000002
 21
0.0000000050096316
 31
-0.0000000000000011
210
0.0000000000000001
220
0.0
230
1.0
 40
0.4082480000000002
 41
5.237173460182215
 42
6.28318530717958
  0
LINE
  5
4ECD
330
A
100
AcDbEntity
  8
0
  6
Continuous
 62
     7
100
AcDbLine
 10
172.197542
 20
-58.8071259999999
 30
0.0
 11
172.197542
 21
-60.93526899999989
 31
0.0
  0
LINE
  5
4ECE
330
A
100
AcDbEntity
  8
0
  6
Continuous
 62
     7
100
AcDbLine
 10
163.9554919999997
 20
-84.33655299999989
 30
0.0
 11
163.5609119999997
 21
-84.33495999999989
 31
0.0
  0
ELLIPSE
  5
4ECF
330
A
100
AcDbEntity
  8
0
  6
Continuous
 62
     9
100
AcDbEllipse
 10
156.4112669999997
 20
-78.85891299999989
 30
0.0
 11
-15.19999999999999
 21
-0.0000000047591653
 31
0.0000000000000011
210
0.0000000000000001
220
0.0
230
1.0
 40
0.4082480000000002
 41
2.060507940845806
 42
2.114249772787523
  0
LINE
  5
4ED0
330
A
100
AcDbEntity
  8
0
  6
Continuous
 62
     7
100
AcDbLine
 10
179.5948190000001
 20
-90.78465899999988
 30
0.0
 11
179.5948190000001
 21
-56.20510799999988
 31
0.0
  0
ELLIPSE
  5
4ED1
330
A
100
AcDbEntity
  8
0
  6
Continuous
 62
     7
100
AcDbEllipse
 10
179.5948190000001
 20
-92.71994499999989
 30
0.0
 11
-0.42399999999998
 21
-2.077167301880149
 31
0.0000000000000001
210
0.0
220
0.0000000000000001
230
0.9999999999999998
 40
0.4082480000000002
 41
0.000000000000248
 42
0.4636476096400845
  0
LINE
  5
4ED2
330
A
100
AcDbEntity
  8
0
  6
Continuous
 62
     7
100
AcDbLine
 10
179.5948190000001
 20
-129.2347819999999
 30
0.0
 11
179.5948190000001
 21
-94.65523099999989
 31
0.0
  0
LINE
  5
4ED3
330
A
100
AcDbEntity
  8
0
  6
Continuous
 62
     7
100
AcDbLine
 10
173.5127139999998
 20
-134.2007999999999
 30
0.0
 11
179.5948190000001
 21
-129.2347819999999
 31
0.0
  0
ELLIPSE
  5
4ED4
330
A
100
AcDbEntity
  8
0
  6
Continuous
 62
     7
100
AcDbEllipse
 10
173.7810429999999
 20
-97.4668739999999
 30
0.0
 11
-0.560000000000005
 21
-2.743428511917153
 31
0.0
210
0.0
220
0.0
230
1.0
 40
0.4082480000000002
 41
3.141592653590004
 42
3.821200762008308
  0
ELLIPSE
  5
4ED5
330
A
100
AcDbEntity
  8
0
  6
Continuous
 62
     7
100
AcDbEllipse
 10
157.7707959999997
 20
-79.13642599999988
 30
0.0
 11
-8.800000000000029
 21
-0.000000002755296
 31
0.0000000000000006
210
0.0000000000000001
220
0.0000000000000001
230
1.0
 40
0.4082480000000002
 41
0.6561219067372459
 42
1.107148717666271
  0
ELLIPSE
  5
4ED6
330
A
100
AcDbEntity
  8
0
  6
Continuous
 62
     7
100
AcDbEllipse
 10
157.7707959999997
 20
-92.20873699999989
 30
0.0
 11
8.800000000000029
 21
0.000000002755296
 31
-0.0000000000000006
210
0.0000000000000001
220
0.0
230
1.0
 40
0.4082480000000002
 41
3.141592653589788
 42
4.248741371256068
  0
ELLIPSE
  5
4ED7
330
A
100
AcDbEntity
  8
0
  6
Continuous
 62
     7
100
AcDbEllipse
 10
169.308907
 20
-101.4835059999999
 30
0.0
 11
-0.560000000000005
 21
-2.743428511917153
 31
0.0000000000000002
210
0.0
220
0.0000000000000001
230
1.0
 40
0.4082480000000002
 41
0.4636476096399695
 42
3.141592653589794
  0
ELLIPSE
  5
4ED8
330
A
100
AcDbEntity
  8
0
  6
Continuous
 62
     7
100
AcDbEllipse
 10
169.308907
 20
-101.4835059999999
 30
0.0
 11
-0.560000000000005
 21
-2.743428511917153
 31
0.0
210
0.0
220
0.0
230
1.0
 40
0.4082480000000002
 41
3.141592653589794
 42
6.283185307179584
  0
LINE
  5
4ED9
330
A
100
AcDbEntity
  8
0
  6
Continuous
 62
     7
100
AcDbLine
 10
179.95259
 20
-90.85768799999987
 30
0.0
 11
179.95259
 21
-56.27813799999987
 31
0.0
  0
LINE
  5
4EDA
330
A
100
AcDbEntity
  8
0
  6
Continuous
 62
     7
100
AcDbLine
 10
179.5948190000001
 20
-90.78465899999988
 30
0.0
 11
179.95259
 21
-90.85768799999987
 31
0.0
  0
ELLIPSE
  5
4EDB
330
A
100
AcDbEntity
  8
0
  6
Continuous
 62
     7
100
AcDbEllipse
 10
179.95259
 20
-92.79297499999989
 30
0.0
 11
-0.42399999999998
 21
-2.077167301880121
 31
0.0000000000000001
210
0.0
220
0.0000000000000001
230
1.0
 40
0.4082480000000002
 41
3.141592653589886
 42
3.605240263229886
  0
LINE
  5
4EDC
330
A
100
AcDbEntity
  8
0
  6
Continuous
 62
     7
100
AcDbLine
 10
185.676924
 20
-124.6339129999999
 30
0.0
 11
185.676924
 21
-51.60423799999986
 31
0.0
  0
LINE
  5
4EDD
330
A
100
AcDbEntity
  8
0
  6
Continuous
 62
     7
100
AcDbLine
 10
185.676924
 20
-124.6339129999999
 30
0.0
 11
179.95259
 21
-129.3078119999999
 31
0.0
  0
LINE
  5
4EDE
330
A
100
AcDbEntity
  8
0
  6
Continuous
 62
     7
100
AcDbLine
 10
179.95259
 20
-129.3078119999999
 30
0.0
 11
179.95259
 21
-94.7282609999999
 31
0.0
  0
ELLIPSE
  5
4EDF
330
A
100
AcDbEntity
  8
0
  6
Continuous
 62
     7
100
AcDbEllipse
 10
183.1725279999999
 20
-60.95203699999991
 30
0.0
 11
-0.42399999999998
 21
-2.077167301880149
 31
0.0000000000000001
210
0.0
220
0.0000000000000001
230
0.9999999999999998
 40
0.4082480000000002
 41
3.141592653589884
 42
3.605240263229883
  0
ELLIPSE
  5
4EE0
330
A
100
AcDbEntity
  8
0
  6
Continuous
 62
     7
100
AcDbEllipse
 10
183.1725279999999
 20
-119.3757759999999
 30
0.0
 11
-0.4239999999999799
 21
-2.077167301880136
 31
0.0000000000000001
210
0.0
220
0.0000000000000001
230
1.0
 40
0.4082480000000002
 41
3.14159265359004
 42
3.605240263229883
  0
ELLIPSE
  5
4EE1
330
A
100
AcDbEntity
  8
0
  6
Continuous
 62
     7
100
AcDbEllipse
 10
173.7810429999999
 20
-97.4668739999999
 30
0.0
 11
-0.560000000000005
 21
-2.743428511917153
 31
0.0000000000000002
210
0.0
220
0.0000000000000001
230
1.0
 40
0.4082480000000002
 41
2.034443936433924
 42
3.141592653589794
  0
ELLIPSE
  5
4EE2
330
A
100
AcDbEntity
  8
0
  6
Continuous
 62
     7
100
AcDbEllipse
 10
173.7810429999999
 20
-97.4668739999999
 30
0.0
 11
-0.560000000000005
 21
-2.743428511917153
 31
0.0000000000000002
210
0.0
220
0.0000000000000001
230
1.0
 40
0.4082480000000002
 41
0.1604061352367429
 42
2.034443936433744
  0
ELLIPSE
  5
4EE3
330
A
100
AcDbEntity
  8
0
  6
Continuous
 62
     7
100
AcDbEllipse
 10
157.7707959999997
 20
-114.1906689999999
 30
0.0
 11
8.800000000000029
 21
0.0000000027553099
 31
-0.0000000000000006
210
0.0000000000000001
220
0.0
230
1.0
 40
0.4082480000000002
 41
3.141592653589794
 42
4.248741371256063
  0
ELLIPSE
  5
4EE4
330
A
100
AcDbEntity
  8
0
  6
Continuous
 62
     7
100
AcDbEllipse
 10
181.9203299999997
 20
-60.6964329999999
 30
0.0
 11
0.42399999999998
 21
2.077167301880121
 31
0.0
210
0.0
220
0.0
230
1.0
 40
0.4082480000000002
 41
3.972175110796248
 42
5.452602849973379
  0
ELLIPSE
  5
4EE5
330
A
100
AcDbEntity
  8
0
  6
Continuous
 62
     7
100
AcDbEllipse
 10
183.1725279999999
 20
-60.95203699999991
 30
0.0
 11
-0.42399999999998
 21
-2.077167301880149
 31
0.0
210
0.0
220
0.0
230
0.9999999999999998
 40
0.4082480000000002
 41
3.60524026322974
 42
6.28318530717958
  0
ELLIPSE
  5
4EE6
330
A
100
AcDbEntity
  8
0
  6
Continuous
 62
     7
100
AcDbEllipse
 10
183.1725279999999
 20
-60.95203699999991
 30
0.0
 11
-0.42399999999998
 21
-2.077167301880149
 31
0.0
210
0.0
220
0.0
230
0.9999999999999998
 40
0.4082480000000002
 41
6.28318530717958
 42
9.424777960769381
  0
ELLIPSE
  5
4EE7
330
A
100
AcDbEntity
  8
0
  6
Continuous
 62
     7
100
AcDbEllipse
 10
178.7003919999999
 20
-92.53737099999989
 30
0.0
 11
0.42399999999998
 21
2.077167301880121
 31
-0.0000000000000001
210
0.0
220
0.0000000000000001
230
1.0
 40
0.4082480000000002
 41
3.697100113803158
 42
5.727677846966852
  0
ELLIPSE
  5
4EE8
330
A
100
AcDbEntity
  8
0
  6
Continuous
 62
     7
100
AcDbEllipse
 10
179.95259
 20
-92.79297499999989
 30
0.0
 11
-0.42399999999998
 21
-2.077167301880121
 31
0.0
210
0.0
220
0.0
230
1.0
 40
0.4082480000000002
 41
0.4636476096398523
 42
3.141592653589794
  0
ELLIPSE
  5
4EE9
330
A
100
AcDbEntity
  8
0
  6
Continuous
 62
     7
100
AcDbEllipse
 10
179.5948190000001
 20
-92.71994499999989
 30
0.0
 11
-0.42399999999998
 21
-2.077167301880149
 31
0.0000000000000001
210
0.0
220
0.0000000000000001
230
0.9999999999999998
 40
0.4082480000000002
 41
3.605240263229641
 42
6.283185307179584
  0
LINE
  5
4EEA
330
A
100
AcDbEntity
  8
0
  6
Continuous
 62
     7
100
AcDbLine
 10
179.95259
 20
-94.7282609999999
 30
0.0
 11
179.5948190000001
 21
-94.65523099999989
 31
0.0
  0
LINE
  5
4EEB
330
A
100
AcDbEntity
  8
0
  6
Continuous
 62
     7
100
AcDbLine
 10
179.5948190000001
 20
-129.2347819999999
 30
0.0
 11
179.95259
 21
-129.3078119999999
 31
0.0
  0
ELLIPSE
  5
4EEC
330
A
100
AcDbEntity
  8
0
  6
Continuous
 62
     7
100
AcDbEllipse
 10
181.9203299999997
 20
-119.1201719999999
 30
0.0
 11
0.42399999999998
 21
2.077167301880121
 31
0.0
210
0.0
220
0.0
230
1.0
 40
0.4082480000000002
 41
3.972175110840252
 42
5.452602849929356
  0
ELLIPSE
  5
4EED
330
A
100
AcDbEntity
  8
0
  6
Continuous
 62
     7
100
AcDbEllipse
 10
183.1725279999999
 20
-119.3757759999999
 30
0.0
 11
-0.4239999999999799
 21
-2.077167301880136
 31
0.0
210
0.0
220
0.0
230
1.0
 40
0.4082480000000002
 41
3.60524026322974
 42
6.283185307179584
  0
ELLIPSE
  5
4EEE
330
A
100
AcDbEntity
  8
0
  6
Continuous
 62
     7
100
AcDbEllipse
 10
183.1725279999999
 20
-119.3757759999999
 30
0.0
 11
-0.4239999999999799
 21
-2.077167301880136
 31
0.0
210
0.0
220
0.0
230
1.0
 40
0.4082480000000002
 41
0.0
 42
3.141592653589794
  0
ELLIPSE
  5
4EEF
330
A
100
AcDbEntity
  8
0
  6
Continuous
 62
     9
100
AcDbEllipse
 10
160.4540769999997
 20
-64.53049099999986
 30
0.0
 11
3.199999999999977
 21
0.0000000010019208
 31
0.0
210
0.0
220
0.0
230
1.0
 40
0.4082480000000003
 41
4.248741371256087
 42
5.819537698050961
  0
ELLIPSE
  5
4EF0
330
A
100
AcDbEntity
  8
0
  6
Continuous
 62
     9
100
AcDbEllipse
 10
159.380765
 20
-65.40684699999989
 30
0.0
 11
-0.160000000000049
 21
-0.7838367176906395
 31
0.0
210
0.0
220
0.0
230
1.0
 40
0.4082480000000002
 41
3.605240263229962
 42
5.1760365900247
  0
ELLIPSE
  5
4EF1
330
A
100
AcDbEntity
  8
0
  6
Continuous
 62
     9
100
AcDbEllipse
 10
160.4540769999997
 20
-63.80019399999989
 30
0.0
 11
-2.400000000000068
 21
-0.0000000007514545
 31
0.0
210
0.0
220
0.0
230
1.0
 40
0.4082480000000002
 41
1.107148717666264
 42
2.677945044461139
  0
ELLIPSE
  5
4EF2
330
A
100
AcDbEntity
  8
0
  6
Continuous
 62
     9
100
AcDbEllipse
 10
162.6007029999997
 20
-64.96866899999989
 30
0.0
 11
0.505964426111949
 21
-0.6196773349970987
 31
0.0
210
0.0
220
0.0
230
1.0
 40
0.8164969999999998
 41
0.7853981627583715
 42
2.356194489553358
  0
ELLIPSE
  5
4EF3
330
A
100
AcDbEntity
  8
0
  6
Continuous
 62
     7
100
AcDbEllipse
 10
160.4540769999997
 20
-81.8385239999999
 30
0.0
 11
3.199999999999977
 21
0.0000000010019208
 31
-0.0000000000000002
210
0.0000000000000001
220
0.0
230
1.0
 40
0.4082480000000003
 41
4.248741371256087
 42
5.819537698050961
  0
LINE
  5
4EF4
330
A
100
AcDbEntity
  8
0
  6
Continuous
 62
     9
100
AcDbLine
 10
159.022994
 20
-83.00699799999989
 30
0.0
 11
159.022994
 21
-65.69896599999987
 31
0.0
  0
LINE
  5
4EF5
330
A
100
AcDbEntity
  8
0
  6
Continuous
 62
     9
100
AcDbLine
 10
163.3162439999999
 20
-65.1147279999999
 30
0.0
 11
163.3162439999999
 21
-82.42276099999989
 31
0.0
  0
LINE
  5
4EF6
330
A
100
AcDbEntity
  8
0
  6
Continuous
 62
     9
100
AcDbLine
 10
108.2195289999999
 20
-54.23330699999988
 30
0.0
 11
159.380765
 21
-64.67654999999988
 31
0.0
  0
LINE
  5
4EF7
330
A
100
AcDbEntity
  8
0
  6
Continuous
 62
     9
100
AcDbLine
 10
110.3661549999997
 20
-52.48059399999988
 30
0.0
 11
108.2195289999999
 21
-54.23330699999988
 31
0.0
  0
LINE
  5
4EF8
330
A
100
AcDbEntity
  8
0
  6
Continuous
 62
     7
100
AcDbLine
 10
110.3661549999997
 20
-52.48059399999988
 30
0.0
 11
163.6740149999999
 21
-63.36201599999987
 31
0.0
  0
LINE
  5
4EF9
330
A
100
AcDbEntity
  8
0
  6
Continuous
 62
     9
100
AcDbLine
 10
162.6007029999997
 20
-64.23837199999988
 30
0.0
 11
163.6740149999999
 21
-63.36201599999987
 31
0.0
  0
LINE
  5
4EFA
330
A
100
AcDbEntity
  8
0
  6
Continuous
 62
     9
100
AcDbLine
 10
159.022994
 20
-65.69896599999987
 30
0.0
 11
107.8617589999998
 21
-55.25572199999988
 31
0.0
  0
ELLIPSE
  5
4EFB
330
A
100
AcDbEntity
  8
0
  6
Continuous
 62
     9
100
AcDbEllipse
 10
108.2195289999999
 20
-54.96360299999989
 30
0.0
 11
-0.160000000000049
 21
-0.7838367176906114
 31
0.0
210
0.0
220
0.0
230
1.0
 40
0.4082480000000002
 41
3.60524026322997
 42
5.176036590024674
  0
LINE
  5
4EFC
330
A
100
AcDbEntity
  8
0
  6
Continuous
 62
     7
100
AcDbLine
 10
144.354388
 20
-80.0127819999999
 30
0.0
 11
159.022994
 21
-83.00699799999989
 31
0.0
  0
LINE
  5
4EFD
330
A
100
AcDbEntity
  8
0
  6
Continuous
 62
     7
100
AcDbLine
 10
144.354388
 20
-93.3772119999999
 30
0.0
 11
144.354388
 21
-80.0127819999999
 31
0.0
  0
LINE
  5
4EFE
330
A
100
AcDbEntity
  8
0
  6
Continuous
 62
     7
100
AcDbLine
 10
139.7033669999999
 20
-92.42782599999989
 30
0.0
 11
144.354388
 21
-93.3772119999999
 31
0.0
  0
LINE
  5
4EFF
330
A
100
AcDbEntity
  8
0
  6
Continuous
 62
     7
100
AcDbLine
 10
139.7033669999999
 20
-102.6519809999999
 30
0.0
 11
139.7033669999999
 21
-92.42782599999989
 31
0.0
  0
LINE
  5
4F00
330
A
100
AcDbEntity
  8
0
  6
Continuous
 62
     7
100
AcDbLine
 10
144.354388
 20
-103.6013669999999
 30
0.0
 11
139.7033669999999
 21
-102.6519809999999
 31
0.0
  0
LINE
  5
4F01
330
A
100
AcDbEntity
  8
0
  6
Continuous
 62
     7
100
AcDbLine
 10
144.354388
 20
-116.9657969999999
 30
0.0
 11
144.354388
 21
-103.6013669999999
 31
0.0
  0
LINE
  5
4F02
330
A
100
AcDbEntity
  8
0
  6
Continuous
 62
     7
100
AcDbLine
 10
159.022994
 20
-119.9600139999999
 30
0.0
 11
144.354388
 21
-116.9657969999999
 31
0.0
  0
LINE
  5
4F03
330
A
100
AcDbEntity
  8
0
  6
Continuous
 62
     9
100
AcDbLine
 10
159.022994
 20
-137.2680459999999
 30
0.0
 11
159.022994
 21
-119.9600139999999
 31
0.0
  0
LINE
  5
4F04
330
A
100
AcDbEntity
  8
0
  6
Continuous
 62
     9
100
AcDbLine
 10
107.8617589999998
 20
-126.8248029999999
 30
0.0
 11
159.022994
 21
-137.2680459999999
 31
0.0
  0
ELLIPSE
  5
4F05
330
A
100
AcDbEntity
  8
0
  6
Continuous
 62
     9
100
AcDbEllipse
 10
107.8617589999998
 20
-124.2687639999999
 30
0.0
 11
1.770875491391985
 21
-2.168870672489984
 31
-0.0000000000000001
210
0.0000000000000001
220
0.0
230
1.0
 40
0.8164970000000002
 41
3.926990816348122
 42
5.497787143142999
  0
LINE
  5
4F06
330
A
100
AcDbEntity
  8
0
  6
Continuous
 62
     9
100
AcDbLine
 10
105.3573619999999
 20
-57.30055299999989
 30
0.0
 11
105.3573619999999
 21
-123.7575569999998
 31
0.0
  0
ELLIPSE
  5
4F07
330
A
100
AcDbEntity
  8
0
  6
Continuous
 62
     9
100
AcDbEllipse
 10
107.8617589999998
 20
-57.81176099999999
 30
0.0
 11
1.770875491391985
 21
-2.168870672489994
 31
0.0000000000000001
210
-0.0000000000000001
220
0.0
230
1.0
 40
0.816497
 41
2.356194489553247
 42
3.926990816348126
  0
LINE
  5
4F08
330
A
100
AcDbEntity
  8
0
  6
Continuous
 62
     9
100
AcDbLine
 10
164.3895569999999
 20
-64.23837199999988
 30
0.0
 11
163.3162439999999
 21
-65.1147279999999
 31
0.0
  0
ELLIPSE
  5
4F09
330
A
100
AcDbEntity
  8
0
  6
Continuous
 62
     7
100
AcDbEllipse
 10
163.6740149999999
 20
-64.09231299999987
 30
0.0
 11
-0.505964426111949
 21
0.6196773349971263
 31
0.0
210
0.0
220
0.0
230
1.0
 40
0.816497
 41
3.926990816348185
 42
5.4977871431429
  0
LINE
  5
4F0A
330
A
100
AcDbEntity
  8
0
  6
Continuous
 62
     7
100
AcDbLine
 10
164.3895569999999
 20
-73.7322299999999
 30
0.0
 11
164.427691
 21
-73.70109399999987
 31
0.0
  0
LINE
  5
4F0B
330
A
100
AcDbEntity
  8
0
  6
Continuous
 62
     7
100
AcDbLine
 10
164.427691
 20
-81.51526899999987
 30
0.0
 11
163.3162439999999
 21
-82.42276099999989
 31
0.0
  0
LINE
  5
4F0C
330
A
100
AcDbEntity
  8
0
  6
Continuous
 62
     7
100
AcDbLine
 10
164.3895569999999
 20
-64.23837199999988
 30
0.0
 11
164.3895569999999
 21
-73.7322299999999
 31
0.0
  0
LINE
  5
4F0D
330
A
100
AcDbEntity
  8
0
  6
Continuous
 62
     7
100
AcDbLine
 10
164.3895569999999
 20
-69.89817199999987
 30
0.0
 11
164.427691
 21
-69.90595599999989
 31
0.0
  0
LINE
  5
4F0E
330
A
100
AcDbEntity
  8
0
  6
Continuous
 62
     7
100
AcDbLine
 10
146.071688
 20
-91.97504199999988
 30
0.0
 11
146.071688
 21
-81.27619499999989
 31
0.0
  0
LINE
  5
4F0F
330
A
100
AcDbEntity
  8
0
  6
Continuous
 62
     7
100
AcDbLine
 10
144.354388
 20
-93.3772119999999
 30
0.0
 11
146.071688
 21
-91.97504199999988
 31
0.0
  0
LINE
  5
4F10
330
A
100
AcDbEntity
  8
0
  6
Continuous
 62
     7
100
AcDbLine
 10
146.679899
 20
-80.77959299999989
 30
0.0
 11
146.071688
 21
-81.27619499999989
 31
0.0
  0
LINE
  5
4F11
330
A
100
AcDbEntity
  8
0
  6
Continuous
 62
     7
100
AcDbLine
 10
146.679899
 20
-80.48747499999988
 30
0.0
 11
146.679899
 21
-80.77959299999989
 31
0.0
  0
LINE
  5
4F12
330
A
100
AcDbEntity
  8
0
  6
Continuous
 62
     7
100
AcDbLine
 10
139.7033669999999
 20
-102.6519809999999
 30
0.0
 11
141.4206669999999
 21
-101.2498109999999
 31
0.0
  0
LINE
  5
4F13
330
A
100
AcDbEntity
  8
0
  6
Continuous
 62
     7
100
AcDbLine
 10
141.4206669999999
 20
-101.2498109999999
 30
0.0
 11
141.4206669999999
 21
-92.77836899999988
 31
0.0
  0
LINE
  5
4F14
330
A
100
AcDbEntity
  8
0
  6
Continuous
 62
     7
100
AcDbLine
 10
144.354388
 20
-116.9657969999999
 30
0.0
 11
146.679899
 21
-115.0670249999999
 31
0.0
  0
LINE
  5
4F15
330
A
100
AcDbEntity
  8
0
  6
Continuous
 62
     7
100
AcDbLine
 10
146.9482269999997
 20
-112.9309069999999
 30
0.0
 11
148.8265239999999
 21
-113.3143129999998
 31
0.0
  0
LINE
  5
4F16
330
A
100
AcDbEntity
  8
0
  6
Continuous
 62
     7
100
AcDbLine
 10
148.8265239999999
 20
-113.3143129999998
 30
0.0
 11
148.9707959999999
 21
-113.1965159999998
 31
0.0
  0
LINE
  5
4F17
330
A
100
AcDbEntity
  8
0
  6
Continuous
 62
     7
100
AcDbLine
 10
163.3162439999999
 20
-119.3757759999999
 30
0.0
 11
163.3520219999998
 21
-119.3465639999999
 31
0.0
  0
ELLIPSE
  5
4F18
330
A
100
AcDbEntity
  8
0
  6
Continuous
 62
     7
100
AcDbEllipse
 10
160.4540769999997
 20
-118.7915389999999
 30
0.0
 11
-3.199999999999977
 21
-0.0000000010019485
 31
0.0
210
0.0
220
0.0
230
1.0
 40
0.4082480000000003
 41
1.107148717666281
 42
2.677945044461166
  0
LINE
  5
4F19
330
A
100
AcDbEntity
  8
0
  6
Continuous
 62
     9
100
AcDbLine
 10
163.3162439999999
 20
-119.3757759999999
 30
0.0
 11
163.3162439999999
 21
-136.6838089999999
 31
0.0
  0
ELLIPSE
  5
4F1A
330
A
100
AcDbEntity
  8
0
  6
Continuous
 62
     9
100
AcDbEllipse
 10
160.4540769999997
 20
-136.0995719999998
 30
0.0
 11
-3.199999999999977
 21
-0.0000000010019208
 31
0.0
210
0.0
220
0.0
230
1.0
 40
0.4082480000000003
 41
1.107148717666284
 42
2.677945044461169
  0
ELLIPSE
  5
4F1B
330
A
100
AcDbEntity
  8
0
  6
Continuous
 62
     9
100
AcDbEllipse
 10
108.2195289999999
 20
-57.51964199999989
 30
0.0
 11
-2.276839917503933
 21
2.788548007487068
 31
-0.0000000000000001
210
0.0
220
0.0
230
1.0
 40
0.816497
 41
5.497787143143026
 42
6.28342755977221
  0
ELLIPSE
  5
4F1C
330
A
100
AcDbEntity
  8
0
  6
Continuous
 62
     9
100
AcDbEllipse
 10
105.7151329999997
 20
-57.00843399999991
 30
0.0
 11
0.8000000000000229
 21
0.0000000002504941
 31
0.0
210
0.0
220
0.0000000000000001
230
1.0
 40
0.4082480000000003
 41
3.141593693778421
 42
4.24874137125606
  0
ELLIPSE
  5
4F1D
330
A
100
AcDbEntity
  8
0
  6
Continuous
 62
     7
100
AcDbEllipse
 10
110.3661549999997
 20
-55.76692999999989
 30
0.0
 11
-2.276839917503934
 21
2.788548007487094
 31
-0.0000000000000002
210
0.0
220
0.0
230
0.9999999999999998
 40
0.8164970000000002
 41
5.497787143143033
 42
6.283185307179588
  0
LINE
  5
4F1E
330
A
100
AcDbEntity
  8
0
  6
Continuous
 62
     7
100
AcDbLine
 10
144.354388
 20
-103.6013669999999
 30
0.0
 11
145.3106089999997
 21
-102.8206149999999
 31
0.0
  0
LINE
  5
4F1F
330
A
100
AcDbEntity
  8
0
  6
Continuous
 62
     7
100
AcDbLine
 10
146.679899
 20
-112.4014419999999
 30
0.0
 11
146.071688
 21
-112.8980439999999
 31
0.0
  0
LINE
  5
4F20
330
A
100
AcDbEntity
  8
0
  6
Continuous
 62
     7
100
AcDbLine
 10
146.071688
 20
-112.8980439999999
 30
0.0
 11
146.071688
 21
-103.8708839999999
 31
0.0
  0
LINE
  5
4F21
330
A
100
AcDbEntity
  8
0
  6
Continuous
 62
     7
100
AcDbLine
 10
146.679899
 20
-112.4014419999999
 30
0.0
 11
146.679899
 21
-115.0670249999999
 31
0.0
  0
LINE
  5
4F22
330
A
100
AcDbEntity
  8
0
  6
Continuous
 62
     7
100
AcDbLine
 10
145.0793529999998
 20
-101.9966369999999
 30
0.0
 11
141.4206669999999
 21
-101.2498109999999
 31
0.0
  0
LINE
  5
4F23
330
A
100
AcDbEntity
  8
0
  6
Continuous
 62
     7
100
AcDbLine
 10
164.427691
 20
-126.2824589999999
 30
0.0
 11
164.3895569999999
 21
-126.3135949999999
 31
0.0
  0
LINE
  5
4F24
330
A
100
AcDbEntity
  8
0
  6
Continuous
 62
     9
100
AcDbLine
 10
163.3162439999999
 20
-136.6838089999999
 30
0.0
 11
164.3895569999999
 21
-135.8074529999999
 31
0.0
  0
LINE
  5
4F25
330
A
100
AcDbEntity
  8
0
  6
Continuous
 62
     7
100
AcDbLine
 10
164.3895569999999
 20
-126.3135949999999
 30
0.0
 11
164.3895569999999
 21
-135.8074529999999
 31
0.0
  0
ELLIPSE
  5
4F26
330
A
100
AcDbEntity
  8
0
  6
Continuous
 62
     9
100
AcDbEllipse
 10
105.7151329999997
 20
-123.4654379999999
 30
0.0
 11
-0.8000000000000229
 21
-0.0000000002504802
 31
-0.0000000000000001
210
-0.0000000000000001
220
0.0000000000000001
230
1.0
 40
0.4082480000000003
 41
6.283185307179567
 42
7.390334024845797
  0
ELLIPSE
  5
4F27
330
A
100
AcDbEntity
  8
0
  6
Continuous
 62
     9
100
AcDbEllipse
 10
159.380765
 20
-136.9759279999999
 30
0.0
 11
-0.160000000000049
 21
-0.7838367176906253
 31
0.0
210
0.0
220
0.0
230
1.0
 40
0.4082480000000002
 41
5.176036590024657
 42
6.283184393125047
  0
ELLIPSE
  5
4F28
330
A
100
AcDbEntity
  8
0
  6
Continuous
 62
     9
100
AcDbEllipse
 10
162.6007029999997
 20
-136.5377499999999
 30
0.0
 11
0.505964426111949
 21
-0.6196773349971128
 31
0.0
210
-0.0000000000000001
220
0.0
230
1.0
 40
0.8164969999999996
 41
6.28318530717927
 42
7.068583469937974
  0
ELLIPSE
  5
4F29
330
A
100
AcDbEntity
  8
0
  6
Continuous
 62
     9
100
AcDbEllipse
 10
108.2195299999999
 20
-126.5326839999999
 30
0.0
 11
-0.160000000000049
 21
-0.7838367176906395
 31
0.0
210
0.0
220
0.0
230
1.0
 40
0.4082480000000002
 41
5.176036590024668
 42
6.283185307179445
  0
LINE
  5
4F2A
330
A
100
AcDbEntity
  8
0
  6
Continuous
 62
     7
100
AcDbLine
 10
146.071688
 20
-112.2772919999998
 30
0.0
 11
146.679899
 21
-112.4014419999999
 31
0.0
  0
ELLIPSE
  5
4F2B
330
A
100
AcDbEntity
  8
0
  6
Continuous
 62
     7
100
AcDbEllipse
 10
163.6740149999999
 20
-135.6613939999999
 30
0.0
 11
-0.505964426111949
 21
0.6196773349971128
 31
0.0
210
0.0
220
0.0
230
1.0
 40
0.8164969999999996
 41
3.14159265358991
 42
3.926990816348192
  0
LINE
  5
4F2C
330
A
100
AcDbEntity
  8
0
  6
Continuous
 62
     7
100
AcDbLine
 10
148.8265239999999
 20
-110.6487299999999
 30
0.0
 11
148.9707959999999
 21
-110.5309329999999
 31
0.0
  0
LINE
  5
4F2D
330
A
100
AcDbEntity
  8
0
  6
Continuous
 62
     7
100
AcDbLine
 10
148.8265239999999
 20
-113.3143129999998
 30
0.0
 11
148.8265239999999
 21
-110.6487299999999
 31
0.0
  0
LINE
  5
4F2E
330
A
100
AcDbEntity
  8
0
  6
Continuous
 62
     7
100
AcDbLine
 10
147.0555579999996
 20
-110.2872329999999
 30
0.0
 11
148.8265239999999
 21
-110.6487299999999
 31
0.0
  0
LINE
  5
4F2F
330
A
100
AcDbEntity
  8
0
  6
Continuous
 62
     7
100
AcDbLine
 10
148.7370809999997
 20
-108.8047309999999
 30
0.0
 11
148.9707959999999
 21
-108.8524379999999
 31
0.0
  0
ELLIPSE
  5
4F30
330
A
100
AcDbEntity
  8
0
  6
Continuous
 62
     7
100
AcDbEllipse
 10
154.4758879999999
 20
-95.70646699999988
 30
0.0
 11
-5.199999999999981
 21
-0.0000000016281421
 31
0.0000000000000004
210
0.0000000000000001
220
0.0
230
1.0
 40
0.4082480000000002
 41
1.196691484440258
 42
2.65759931029232
  0
ELLIPSE
  5
4F31
330
A
100
AcDbEntity
  8
0
  6
Continuous
 62
     7
100
AcDbEllipse
 10
153.1603059999997
 20
-97.0745099999999
 30
0.0
 11
-1.599999999999934
 21
-0.0000000005009604
 31
-0.0000000000000001
210
-0.0000000000000001
220
0.0
230
1.0
 40
0.4082480000000002
 41
0.7918811474440375
 42
1.196691484440149
  0
ELLIPSE
  5
4F32
330
A
100
AcDbEntity
  8
0
  6
Continuous
 62
     7
100
AcDbEllipse
 10
148.804758
 20
-98.87586099999991
 30
0.0
 11
4.600000000000045
 21
0.0000000014402785
 31
-0.0000000000000003
210
0.0000000000000001
220
0.0
230
1.0
 40
0.4082480000000002
 41
0.791881147444121
 42
1.381563468782424
  0
ELLIPSE
  5
4F33
330
A
100
AcDbEntity
  8
0
  6
Continuous
 62
     7
100
AcDbEllipse
 10
149.971012
 20
-96.3899059999999
 30
0.0
 11
-1.599999999999934
 21
-0.0000000005009604
 31
-0.0000000000000001
210
-0.0000000000000001
220
0.0
230
1.0
 40
0.4082480000000002
 41
0.7600247124326638
 42
1.381563468782404
  0
ELLIPSE
  5
4F34
330
A
100
AcDbEntity
  8
0
  6
Continuous
 62
     7
100
AcDbEllipse
 10
158.6688400000001
 20
-93.01480599999988
 30
0.0
 11
-13.59999999999994
 21
-0.0000000042582049
 31
-0.0000000000000009
210
-0.0000000000000001
220
0.0
230
1.0
 40
0.4082480000000001
 41
6.241655278368382
 42
6.283185307179576
  0
ELLIPSE
  5
4F35
330
A
100
AcDbEntity
  8
0
  6
Continuous
 62
     7
100
AcDbEllipse
 10
146.850315
 20
-92.18191299999986
 30
0.0
 11
-1.600000000000043
 21
-0.0000000005009604
 31
0.0000000000000001
210
0.0000000000000001
220
0.0
230
1.0
 40
0.4082480000000002
 41
4.967805894879116
 42
5.220630232577797
  0
LINE
  5
4F36
330
A
100
AcDbEntity
  8
0
  6
Continuous
 62
     7
100
AcDbLine
 10
158.1464549999999
 20
-96.35682299999988
 30
0.0
 11
159.0786359999999
 21
-96.69428599999989
 31
0.0
  0
ELLIPSE
  5
4F37
330
A
100
AcDbEntity
  8
0
  6
Continuous
 62
     7
100
AcDbEllipse
 10
154.4758879999999
 20
-104.4700279999999
 30
0.0
 11
-5.199999999999981
 21
-0.0000000016281421
 31
0.0000000000000004
210
0.0000000000000001
220
0.0
230
1.0
 40
0.4082480000000002
 41
1.19669148444026
 42
2.657599310292318
  0
LINE
  5
4F38
330
A
100
AcDbEntity
  8
0
  6
Continuous
 62
     9
100
AcDbLine
 10
152.575603
 20
-97.68252899999989
 30
0.0
 11
152.575603
 21
-106.4460899999998
 31
0.0
  0
LINE
  5
4F39
330
A
100
AcDbEntity
  8
0
  6
Continuous
 62
     7
100
AcDbLine
 10
159.0786359999999
 20
-96.69428599999989
 30
0.0
 11
159.0786359999999
 21
-105.4578469999999
 31
0.0
  0
LINE
  5
4F3A
330
A
100
AcDbEntity
  8
0
  6
Continuous
 62
     9
100
AcDbLine
 10
152.0362929999997
 20
-106.3029359999999
 30
0.0
 11
152.0362929999997
 21
-97.5393749999999
 31
0.0
  0
ELLIPSE
  5
4F3B
330
A
100
AcDbEntity
  8
0
  6
Continuous
 62
     7
100
AcDbEllipse
 10
153.1603059999997
 20
-105.8380709999999
 30
0.0
 11
1.600000000000043
 21
0.0000000005009604
 31
-0.0000000000000001
210
0.0000000000000001
220
0.0
230
1.0
 40
0.4082480000000002
 41
3.93347380103389
 42
4.33828413803002
  0
LINE
  5
4F3C
330
A
100
AcDbEntity
  8
0
  6
Continuous
 62
     9
100
AcDbLine
 10
149.6700429999999
 20
-97.03144299999989
 30
0.0
 11
149.6700429999999
 21
-105.7950039999999
 31
0.0
  0
ELLIPSE
  5
4F3D
330
A
100
AcDbEntity
  8
0
  6
Continuous
 62
     7
100
AcDbEllipse
 10
148.804758
 20
-107.6394219999999
 30
0.0
 11
4.599999999999936
 21
0.0000000014402785
 31
0.0
210
0.0
220
0.0
230
1.0
 40
0.4082480000000002
 41
0.791881147444125
 42
1.381563468782426
  0
LINE
  5
4F3E
330
A
100
AcDbEntity
  8
0
  6
Continuous
 62
     9
100
AcDbLine
 10
148.8113009999997
 20
-105.6034799999999
 30
0.0
 11
148.8113009999997
 21
-96.83991899999988
 31
0.0
  0
ELLIPSE
  5
4F3F
330
A
100
AcDbEntity
  8
0
  6
Continuous
 62
     7
100
AcDbEllipse
 10
149.971012
 20
-105.1534669999999
 30
0.0
 11
1.600000000000043
 21
0.0000000005009604
 31
0.0
210
0.0
220
0.0
230
1.0
 40
0.4082480000000002
 41
3.901617366022568
 42
4.523156122372276
  0
ELLIPSE
  5
4F40
330
A
100
AcDbEntity
  8
0
  6
Continuous
 62
     7
100
AcDbEllipse
 10
158.6688400000001
 20
-93.01480599999988
 30
0.0
 11
-13.59999999999994
 21
-0.0000000042582049
 31
0.0
210
0.0
220
0.0
230
1.0
 40
0.4082480000000001
 41
0.0
 42
0.7600247124325367
  0
ELLIPSE
  5
4F41
330
A
100
AcDbEntity
  8
0
  6
Continuous
 62
     7
100
AcDbEllipse
 10
158.6688400000001
 20
-101.7783669999998
 30
0.0
 11
-13.59999999999994
 21
-0.0000000042582049
 31
0.0
210
0.0
220
0.0
230
1.0
 40
0.4082480000000001
 41
0.000000000000001
 42
0.7600247124325356
  0
ELLIPSE
  5
4F42
330
A
100
AcDbEntity
  8
0
  6
Continuous
 62
     7
100
AcDbEllipse
 10
145.2838919999999
 20
-89.73288799999989
 30
0.0
 11
4.599999999999936
 21
0.0000000014402646
 31
0.0000000000000003
210
-0.0000000000000001
220
0.0
230
1.0
 40
0.4082480000000002
 41
4.967805894879209
 42
5.642189781730116
  0
LINE
  5
4F4D
330
A
100
AcDbEntity
  8
0
  6
Continuous
 62
     7
100
AcDbLine
 10
169.6288509999999
 20
-63.5521269999999
 30
0.0
 11
169.6288509999999
 21
-59.54256399999988
 31
0.0
  0
LINE
  5
4F4E
330
A
100
AcDbEntity
  8
0
  6
Continuous
 62
     7
100
AcDbLine
 10
167.6621639999999
 20
-57.88237099999989
 30
0.0
 11
116.5009279999999
 21
-47.43912799999989
 31
0.0
  0
LINE
  5
4F4F
330
A
100
AcDbEntity
  8
0
  6
Continuous
 62
     7
100
AcDbLine
 10
114.0640879999998
 20
-47.99045499999988
 30
0.0
 11
111.917463
 21
-49.74316699999988
 31
0.0
  0
ARC
  5
4F50
330
A
100
AcDbEntity
  8
0
  6
Continuous
 62
     7
100
AcDbCircle
 10
115.858741
 20
-50.27600399999989
 30
0.0
 40
2.908654999999998
100
AcDbArc
 50
77.24486000000021
 51
124.9062069999985
  0
LINE
  5
4F51
330
A
100
AcDbEntity
  8
0
  6
Continuous
 62
     7
100
AcDbLine
 10
114.194308
 20
-47.89064599999989
 30
0.0
 11
114.0847329999997
 21
-47.97376899999989
 31
0.0
  0
LINE
  5
4F52
330
A
100
AcDbEntity
  8
0
  6
Continuous
 62
     7
100
AcDbLine
 10
114.0847329999997
 20
-47.97376899999989
 30
0.0
 11
114.063491
 21
-47.99094299999987
 31
0.0
  0
LINE
  5
4F53
330
A
100
AcDbEntity
  8
0
  6
Continuous
 62
     7
100
AcDbLine
 10
113.5913589999997
 20
-51.31856899999988
 30
0.0
 11
113.2335879999998
 21
-51.61068799999987
 31
0.0
  0
LINE
  5
4F54
330
A
100
AcDbEntity
  8
0
  6
Continuous
 62
     7
100
AcDbLine
 10
113.2335879999998
 20
-51.61068799999987
 30
0.0
 11
112.875817
 21
-51.90280599999988
 31
0.0
  0
LINE
  5
4F55
330
A
100
AcDbEntity
  8
0
  6
Continuous
 62
     7
100
AcDbLine
 10
113.5913589999997
 20
-51.31856899999988
 30
0.0
 11
113.2335879999998
 21
-51.61068799999987
 31
0.0
  0
LINE
  5
4F56
330
A
100
AcDbEntity
  8
0
  6
Continuous
 62
     7
100
AcDbLine
 10
147.3089329999996
 20
-83.81393899999986
 30
0.0
 11
147.2206339999996
 21
-83.3870289999999
 31
0.0
  0
LINE
  5
4F57
330
A
100
AcDbEntity
  8
0
  6
Continuous
 62
     7
100
AcDbLine
 10
147.3089329999996
 20
-90.75179499999988
 30
0.0
 11
147.3089329999996
 21
-83.81397599999989
 31
0.0
  0
LINE
  5
4F61
330
A
100
AcDbEntity
  8
0
  6
Continuous
 62
     7
100
AcDbLine
 10
148.9707959999999
 20
-80.9551019999999
 30
0.0
 11
148.9707959999999
 21
-92.20873699999989
 31
0.0
  0
LINE
  5
4F62
330
A
100
AcDbEntity
  8
0
  6
Continuous
 62
     7
100
AcDbLine
 10
148.9707959999999
 20
-105.6632979999999
 30
0.0
 11
148.9707959999999
 21
-114.1906689999999
 31
0.0
  0
ARC
  5
4F63
330
A
100
AcDbEntity
  8
0
  6
Continuous
 62
     7
100
AcDbCircle
 10
107.8105559999995
 20
-56.94436799999988
 30
0.0
 40
2.896132
100
AcDbArc
 50
130.1775550000002
 51
181.2675719999992
  0
LINE
  5
4F64
330
A
100
AcDbEntity
  8
0
  6
Continuous
 62
     7
100
AcDbLine
 10
108.0893149999999
 20
-52.9783819999999
 30
0.0
 11
105.9426899999999
 21
-54.73109399999987
 31
0.0
  0
LINE
  5
4F65
330
A
100
AcDbEntity
  8
0
  6
Continuous
 62
     7
100
AcDbLine
 10
104.9151329999999
 20
-57.00843399999991
 30
0.0
 11
104.9151329999999
 21
-123.4654379999999
 31
0.0
  0
ARC
  5
4F66
330
A
100
AcDbEntity
  8
0
  6
Continuous
 62
     7
100
AcDbCircle
 10
160.4201549999997
 20
-132.6616049999999
 30
0.0
 40
5.237343
100
AcDbArc
 50
256.7613650000014
 51
300.8607510000012
  0
LINE
  5
4F67
330
A
100
AcDbEntity
  8
0
  6
Continuous
 62
     7
100
AcDbLine
 10
108.0595299999997
 20
-127.3165209999999
 30
0.0
 11
159.2207650000001
 21
-137.7597639999999
 31
0.0
  0
LINE
  5
4F68
330
A
100
AcDbEntity
  8
0
  6
Continuous
 62
     7
100
AcDbLine
 10
163.1066669999996
 20
-137.1574269999999
 30
0.0
 11
164.1799799999998
 21
-136.2810709999999
 31
0.0
  0
ARC
  5
4F69
330
A
100
AcDbEntity
  8
0
  6
Continuous
 62
     7
100
AcDbCircle
 10
108.9740429999997
 20
-123.3605879999999
 30
0.0
 40
4.060264
100
AcDbArc
 50
181.4797370000006
 51
256.9833039999991
  0
LINE
  5
4F6A
330
A
100
AcDbEntity
  8
0
  6
Continuous
 62
     7
100
AcDbLine
 10
145.0688400000001
 20
-93.01480599999988
 30
0.0
 11
145.0688400000001
 21
-101.7783669999998
 31
0.0
  0
LINE
  5
4F6B
330
A
100
AcDbEntity
  8
0
  6
Continuous
 62
     7
100
AcDbLine
 10
-99.08962100000003
 20
36.50000000000011
 30
0.0
 11
-97.35757000000006
 21
36.50000000000011
 31
0.0
  0
LINE
  5
4F6C
330
A
100
AcDbEntity
  8
0
  6
Continuous
 62
     7
100
AcDbLine
 10
-99.95564600000006
 20
35.00000000000011
 30
0.0
 11
-99.08962100000003
 21
36.50000000000011
 31
0.0
  0
LINE
  5
4F6D
330
A
100
AcDbEntity
  8
0
  6
Continuous
 62
     7
100
AcDbLine
 10
-97.35757000000006
 20
36.50000000000011
 30
0.0
 11
-96.49154400000004
 21
35.00000000000011
 31
0.0
  0
LINE
  5
4F6E
330
A
100
AcDbEntity
  8
0
  6
Continuous
 62
     7
100
AcDbLine
 10
-96.49154400000004
 20
35.00000000000011
 30
0.0
 11
-97.35757000000006
 21
33.50000000000012
 31
0.0
  0
LINE
  5
4F6F
330
A
100
AcDbEntity
  8
0
  6
Continuous
 62
     7
100
AcDbLine
 10
-99.08962100000003
 20
33.50000000000012
 30
0.0
 11
-99.95564600000006
 21
35.00000000000011
 31
0.0
  0
LINE
  5
4F70
330
A
100
AcDbEntity
  8
0
  6
Continuous
 62
     7
100
AcDbLine
 10
-97.35757000000006
 20
33.50000000000012
 30
0.0
 11
-99.08962100000003
 21
33.50000000000012
 31
0.0
  0
LINE
  5
4F71
330
A
100
AcDbEntity
  8
0
  6
Continuous
 62
     7
100
AcDbLine
 10
-84.72359500000022
 20
36.73205100000007
 30
0.0
 11
-83.22359500000004
 21
35.86602500000009
 31
0.0
  0
LINE
  5
4F72
330
A
100
AcDbEntity
  8
0
  6
Continuous
 62
     7
100
AcDbLine
 10
-84.72359500000022
 20
33.26794900000022
 30
0.0
 11
-86.22359500000021
 21
34.13397500000014
 31
0.0
  0
LINE
  5
4F73
330
A
100
AcDbEntity
  8
0
  6
Continuous
 62
     7
100
AcDbLine
 10
-83.22359500000004
 20
34.13397500000014
 30
0.0
 11
-84.72359500000022
 21
33.26794900000022
 31
0.0
  0
LINE
  5
4F74
330
A
100
AcDbEntity
  8
0
  6
Continuous
 62
     7
100
AcDbLine
 10
-86.22359500000021
 20
34.13397500000014
 30
0.0
 11
-86.22359500000021
 21
35.86602500000009
 31
0.0
  0
ARC
  5
4F75
330
A
100
AcDbEntity
  8
0
  6
Continuous
 62
     7
100
AcDbCircle
 10
-84.72359500000022
 20
35.00000000000011
 30
0.0
 40
3.5
100
AcDbArc
 50
240.0000000000003
 51
0.0
  0
ARC
  5
4F76
330
A
100
AcDbEntity
  8
0
  6
Continuous
 62
     7
100
AcDbCircle
 10
-84.72359500000022
 20
35.00000000000011
 30
0.0
 40
3.5
100
AcDbArc
 50
0.0
 51
119.9999999999997
  0
LINE
  5
4F77
330
A
100
AcDbEntity
  8
0
  6
Continuous
 62
     7
100
AcDbLine
 10
-83.22359500000004
 20
35.86602500000009
 30
0.0
 11
-83.22359500000004
 21
34.13397500000014
 31
0.0
  0
LINE
  5
4F78
330
A
100
AcDbEntity
  8
0
  6
Continuous
 62
     7
100
AcDbLine
 10
-86.22359500000021
 20
35.86602500000009
 30
0.0
 11
-84.72359500000022
 21
36.73205100000007
 31
0.0
  0
LINE
  5
4F79
330
A
100
AcDbEntity
  8
0
  6
Continuous
 62
     7
100
AcDbLine
 10
-86.47359500000005
 20
31.96891100000011
 30
0.0
 11
-86.47359500000005
 21
-14.99999999999988
 31
0.0
  0
LINE
  5
4F7A
330
A
100
AcDbEntity
  8
0
  6
Continuous
 62
     7
100
AcDbLine
 10
-86.47359500000005
 20
-14.99999999999988
 30
0.0
 11
-102.473595
 21
-14.99999999999988
 31
0.0
  0
ARC
  5
4F7B
330
A
100
AcDbEntity
  8
0
  6
Continuous
 62
     7
100
AcDbCircle
 10
-84.72359500000022
 20
35.00000000000011
 30
0.0
 40
3.5
100
AcDbArc
 50
119.9999999999997
 51
240.0000000000003
  0
LINE
  5
4F7C
330
A
100
AcDbEntity
  8
0
  6
Continuous
 62
     7
100
AcDbLine
 10
-86.47359500000005
 20
85.00000000000012
 30
0.0
 11
-102.473595
 21
85.00000000000012
 31
0.0
  0
LINE
  5
4F7D
330
A
100
AcDbEntity
  8
0
  6
Continuous
 62
     7
100
AcDbLine
 10
-86.47359500000005
 20
85.00000000000012
 30
0.0
 11
-86.47359500000005
 21
38.03108900000012
 31
0.0
  0
CIRCLE
  5
4F7E
330
A
100
AcDbEntity
  8
0
  6
Continuous
 62
     7
100
AcDbCircle
 10
-98.22359500000022
 20
35.00000000000011
 30
0.0
 40
3.5
  0
LINE
  5
4F7F
330
A
100
AcDbEntity
  8
0
  6
Continuous
 62
     7
100
AcDbLine
 10
-102.473595
 20
-14.99999999999988
 30
0.0
 11
-102.473595
 21
85.00000000000012
 31
0.0
  0
CIRCLE
  5
4F80
330
A
100
AcDbEntity
  8
0
  6
Continuous
 62
     7
100
AcDbCircle
 10
-59.47359500000004
 20
75.00000000000011
 30
0.0
 40
2.649999999999999
  0
LINE
  5
4F81
330
A
100
AcDbEntity
  8
0
  6
Continuous
 62
     7
100
AcDbLine
 10
-52.47359500000005
 20
-14.99999999999988
 30
0.0
 11
-68.47359500000004
 21
-14.99999999999988
 31
0.0
  0
LINE
  5
4F82
330
A
100
AcDbEntity
  8
0
  6
Continuous
 62
     7
100
AcDbLine
 10
-68.47359500000004
 20
37.65000000000009
 30
0.0
 11
-68.47359500000004
 21
85.00000000000012
 31
0.0
  0
ARC
  5
4F83
330
A
100
AcDbEntity
  8
0
  6
Continuous
 62
     7
100
AcDbCircle
 10
-68.47359500000004
 20
35.00000000000011
 30
0.0
 40
2.649999999999999
100
AcDbArc
 50
270.0
 51
90.0
  0
LINE
  5
4F84
330
A
100
AcDbEntity
  8
0
  6
Continuous
 62
     7
100
AcDbLine
 10
-52.47359500000005
 20
85.00000000000012
 30
0.0
 11
-68.47359500000004
 21
85.00000000000012
 31
0.0
  0
LINE
  5
4F85
330
A
100
AcDbEntity
  8
0
  6
Continuous
 62
     7
100
AcDbLine
 10
-52.47359500000005
 20
-14.99999999999988
 30
0.0
 11
-52.47359500000005
 21
85.00000000000012
 31
0.0
  0
LINE
  5
4F86
330
A
100
AcDbEntity
  8
0
  6
Continuous
 62
     7
100
AcDbLine
 10
-68.47359500000004
 20
-14.99999999999988
 30
0.0
 11
-68.47359500000004
 21
32.35000000000011
 31
0.0
  0
CIRCLE
  5
4F87
330
A
100
AcDbEntity
  8
0
  6
Continuous
 62
     7
100
AcDbCircle
 10
-59.47359500000004
 20
-4.999999999999886
 30
0.0
 40
2.649999999999999
  0
LINE
  5
4F88
330
A
100
AcDbEntity
  8
0
  6
Continuous
 62
     7
100
AcDbLine
 10
-86.47359500000005
 20
-14.99999999999988
 30
0.0
 11
-68.47359500000004
 21
-14.99999999999988
 31
0.0
  0
ARC
  5
4F89
330
A
100
AcDbEntity
  8
0
  6
Continuous
 62
     7
100
AcDbCircle
 10
-68.47359500000004
 20
35.00000000000011
 30
0.0
 40
2.649999999999999
100
AcDbArc
 50
90.0
 51
270.0
  0
ARC
  5
4F8A
330
A
100
AcDbEntity
  8
0
  6
Continuous
 62
     7
100
AcDbCircle
 10
-84.72359500000022
 20
35.00000000000011
 30
0.0
 40
3.5
100
AcDbArc
 50
0.0
 51
119.9999999999997
  0
ARC
  5
4F8B
330
A
100
AcDbEntity
  8
0
  6
Continuous
 62
     7
100
AcDbCircle
 10
-84.72359500000022
 20
35.00000000000011
 30
0.0
 40
3.5
100
AcDbArc
 50
240.0000000000003
 51
0.0
  0
LINE
  5
4F8C
330
A
100
AcDbEntity
  8
0
  6
Continuous
 62
     7
100
AcDbLine
 10
-86.47359500000005
 20
85.00000000000012
 30
0.0
 11
-68.47359500000004
 21
85.00000000000012
 31
0.0
  0
LINE
  5
4F8D
330
A
100
AcDbEntity
  8
0
  6
Continuous
 62
     7
100
AcDbLine
 10
-102.473595
 20
60.30000000000012
 30
0.0
 11
-103.973595
 21
60.30000000000012
 31
0.0
  0
LINE
  5
4F8E
330
A
100
AcDbEntity
  8
0
  6
Continuous
 62
     7
100
AcDbLine
 10
-103.973595
 20
60.30000000000012
 30
0.0
 11
-103.973595
 21
84.00000000000011
 31
0.0
  0
LINE
  5
4F8F
330
A
100
AcDbEntity
  8
0
  6
Continuous
 62
     9
100
AcDbLine
 10
-102.473595
 20
84.00000000000011
 30
0.0
 11
-103.973595
 21
84.00000000000011
 31
0.0
  0
ARC
  5
4F90
330
A
100
AcDbEntity
  8
0
  6
Continuous
 62
     7
100
AcDbCircle
 10
-102.973595
 20
84.00000000000011
 30
0.0
 40
1.0
100
AcDbArc
 50
90.0
 51
180.0
  0
LINE
  5
4F91
330
A
100
AcDbEntity
  8
0
  6
Continuous
 62
     7
100
AcDbLine
 10
-102.973595
 20
85.00000000000012
 30
0.0
 11
-102.473595
 21
85.00000000000012
 31
0.0
  0
LINE
  5
4F92
330
A
100
AcDbEntity
  8
0
  6
Continuous
 62
     9
100
AcDbLine
 10
-103.973595
 20
-13.99999999999989
 30
0.0
 11
-102.473595
 21
-13.99999999999989
 31
0.0
  0
LINE
  5
4F93
330
A
100
AcDbEntity
  8
0
  6
Continuous
 62
     7
100
AcDbLine
 10
-103.973595
 20
-13.99999999999989
 30
0.0
 11
-103.973595
 21
9.700000000000102
 31
0.0
  0
LINE
  5
4F94
330
A
100
AcDbEntity
  8
0
  6
Continuous
 62
     7
100
AcDbLine
 10
-103.973595
 20
9.700000000000102
 30
0.0
 11
-102.473595
 21
9.700000000000102
 31
0.0
  0
LINE
  5
4F95
330
A
100
AcDbEntity
  8
0
  6
Continuous
 62
     7
100
AcDbLine
 10
-102.473595
 20
-14.99999999999988
 30
0.0
 11
-102.973595
 21
-14.99999999999988
 31
0.0
  0
ARC
  5
4F96
330
A
100
AcDbEntity
  8
0
  6
Continuous
 62
     7
100
AcDbCircle
 10
-102.973595
 20
-13.99999999999989
 30
0.0
 40
1.0
100
AcDbArc
 50
180.0
 51
270.0
  0
LINE
  5
4F97
330
A
100
AcDbEntity
  8
0
  6
Continuous
 62
     7
100
AcDbLine
 10
-103.973595
 20
28.00000000000011
 30
0.0
 11
-102.473595
 21
28.00000000000011
 31
0.0
  0
LINE
  5
4F98
330
A
100
AcDbEntity
  8
0
  6
Continuous
 62
     7
100
AcDbLine
 10
-103.973595
 20
9.700000000000102
 30
0.0
 11
-103.973595
 21
28.00000000000011
 31
0.0
  0
LINE
  5
4F99
330
A
100
AcDbEntity
  8
0
  6
Continuous
 62
     7
100
AcDbLine
 10
-103.973595
 20
42.00000000000011
 30
0.0
 11
-102.473595
 21
42.00000000000011
 31
0.0
  0
LINE
  5
4F9A
330
A
100
AcDbEntity
  8
0
  6
Continuous
 62
     7
100
AcDbLine
 10
-103.973595
 20
42.00000000000011
 30
0.0
 11
-103.973595
 21
60.30000000000012
 31
0.0
  0
LINE
  5
4F9B
330
A
100
AcDbEntity
  8
0
  6
Continuous
 62
     7
100
AcDbLine
 10
-103.973595
 20
28.00000000000011
 30
0.0
 11
-103.973595
 21
29.00000000000011
 31
0.0
  0
LINE
  5
4F9C
330
A
100
AcDbEntity
  8
0
  6
Continuous
 62
     7
100
AcDbLine
 10
-103.973595
 20
41.00000000000011
 30
0.0
 11
-103.973595
 21
42.00000000000011
 31
0.0
  0
LINE
  5
4F9D
330
A
100
AcDbEntity
  8
0
  6
Continuous
 62
     7
100
AcDbLine
 10
-102.826671
 20
41.00000000000011
 30
0.0
 11
-102.826671
 21
29.00000000000011
 31
0.0
  0
LINE
  5
4F9E
330
A
100
AcDbEntity
  8
0
  6
Continuous
 62
     7
100
AcDbLine
 10
-102.473595
 20
41.00000000000011
 30
0.0
 11
-102.826671
 21
41.00000000000011
 31
0.0
  0
LINE
  5
4F9F
330
A
100
AcDbEntity
  8
0
  6
Continuous
 62
     7
100
AcDbLine
 10
-102.473595
 20
29.00000000000011
 30
0.0
 11
-102.826671
 21
29.00000000000011
 31
0.0
  0
LINE
  5
4FA0
330
A
100
AcDbEntity
  8
0
  6
Continuous
 62
     9
100
AcDbLine
 10
-109.168392
 20
41.00000000000011
 30
0.0
 11
-109.168392
 21
29.00000000000011
 31
0.0
  0
LINE
  5
4FA1
330
A
100
AcDbEntity
  8
0
  6
Continuous
 62
     7
100
AcDbLine
 10
-109.168392
 20
41.00000000000011
 30
0.0
 11
-102.826671
 21
41.00000000000011
 31
0.0
  0
LINE
  5
4FA2
330
A
100
AcDbEntity
  8
0
  6
Continuous
 62
     7
100
AcDbLine
 10
-109.168392
 20
29.00000000000011
 30
0.0
 11
-102.826671
 21
29.00000000000011
 31
0.0
  0
LINE
  5
4FA3
330
A
100
AcDbEntity
  8
0
  6
Continuous
 62
     7
100
AcDbLine
 10
-109.176405
 20
41.00000000000011
 30
0.0
 11
-109.168392
 21
41.00000000000011
 31
0.0
  0
LINE
  5
4FA4
330
A
100
AcDbEntity
  8
0
  6
Continuous
 62
     7
100
AcDbLine
 10
-109.168392
 20
29.00000000000011
 30
0.0
 11
-109.176405
 21
29.00000000000011
 31
0.0
  0
LINE
  5
4FA5
330
A
100
AcDbEntity
  8
0
  6
Continuous
 62
     7
100
AcDbLine
 10
-109.176405
 20
41.00000000000011
 30
0.0
 11
-109.176405
 21
29.00000000000011
 31
0.0
  0
LINE
  5
4FA6
330
A
100
AcDbEntity
  8
0
  6
Continuous
 62
     7
100
AcDbLine
 10
136.8235949999999
 20
85.00000000000012
 30
0.0
 11
136.8235949999999
 21
80.50000000000011
 31
0.0
  0
LINE
  5
4FA7
330
A
100
AcDbEntity
  8
0
  6
Continuous
 62
     9
100
AcDbLine
 10
136.8235949999999
 20
80.50000000000011
 30
0.0
 11
130.8235949999998
 21
80.50000000000011
 31
0.0
  0
LINE
  5
4FA8
330
A
100
AcDbEntity
  8
0
  6
Continuous
 62
     9
100
AcDbLine
 10
130.8235949999998
 20
85.00000000000012
 30
0.0
 11
130.8235949999998
 21
80.50000000000011
 31
0.0
  0
LINE
  5
4FA9
330
A
100
AcDbEntity
  8
0
  6
Continuous
 62
     7
100
AcDbLine
 10
130.8235949999998
 20
85.00000000000012
 30
0.0
 11
136.8235949999999
 21
85.00000000000012
 31
0.0
  0
LINE
  5
4FAA
330
A
100
AcDbEntity
  8
0
  6
Continuous
 62
     7
100
AcDbLine
 10
136.8235949999999
 20
-10.49999999999988
 30
0.0
 11
136.8235949999999
 21
-14.99999999999988
 31
0.0
  0
LINE
  5
4FAB
330
A
100
AcDbEntity
  8
0
  6
Continuous
 62
     7
100
AcDbLine
 10
136.8235949999999
 20
-14.99999999999988
 30
0.0
 11
130.8235949999998
 21
-14.99999999999988
 31
0.0
  0
LINE
  5
4FAC
330
A
100
AcDbEntity
  8
0
  6
Continuous
 62
     9
100
AcDbLine
 10
130.8235949999998
 20
-10.49999999999988
 30
0.0
 11
130.8235949999998
 21
-14.99999999999988
 31
0.0
  0
LINE
  5
4FAD
330
A
100
AcDbEntity
  8
0
  6
Continuous
 62
     9
100
AcDbLine
 10
130.8235949999998
 20
-10.49999999999988
 30
0.0
 11
136.8235949999999
 21
-10.49999999999988
 31
0.0
  0
LINE
  5
4FAE
330
A
100
AcDbEntity
  8
0
  6
Continuous
 62
     7
100
AcDbLine
 10
129.8235949999999
 20
-13.99999999999989
 30
0.0
 11
129.8235949999999
 21
-10.49999999999988
 31
0.0
  0
LINE
  5
4FAF
330
A
100
AcDbEntity
  8
0
  6
Continuous
 62
     9
100
AcDbLine
 10
129.8235949999999
 20
-10.49999999999988
 30
0.0
 11
130.8235949999998
 21
-10.49999999999988
 31
0.0
  0
ARC
  5
4FB0
330
A
100
AcDbEntity
  8
0
  6
Continuous
 62
     7
100
AcDbCircle
 10
130.8235949999998
 20
-13.99999999999989
 30
0.0
 40
1.0
100
AcDbArc
 50
180.0
 51
270.0
  0
LINE
  5
4FB1
330
A
100
AcDbEntity
  8
0
  6
Continuous
 62
     7
100
AcDbLine
 10
129.8235949999999
 20
-10.49999999999988
 30
0.0
 11
129.8235949999999
 21
80.50000000000011
 31
0.0
  0
LINE
  5
4FB2
330
A
100
AcDbEntity
  8
0
  6
Continuous
 62
     9
100
AcDbLine
 10
129.8235949999999
 20
80.50000000000011
 30
0.0
 11
130.8235949999998
 21
80.50000000000011
 31
0.0
  0
LINE
  5
4FB3
330
A
100
AcDbEntity
  8
0
  6
Continuous
 62
     9
100
AcDbLine
 10
130.8235949999998
 20
80.50000000000011
 30
0.0
 11
130.8235949999998
 21
-10.49999999999988
 31
0.0
  0
LINE
  5
4FB4
330
A
100
AcDbEntity
  8
0
  6
Continuous
 62
     7
100
AcDbLine
 10
129.8235949999999
 20
80.50000000000011
 30
0.0
 11
129.8235949999999
 21
84.00000000000011
 31
0.0
  0
ARC
  5
4FB5
330
A
100
AcDbEntity
  8
0
  6
Continuous
 62
     7
100
AcDbCircle
 10
130.8235949999998
 20
84.00000000000011
 30
0.0
 40
1.0
100
AcDbArc
 50
90.0
 51
180.0
  0
LINE
  5
4FB6
330
A
100
AcDbEntity
  8
0
  6
Continuous
 62
     7
100
AcDbLine
 10
136.8235949999999
 20
-10.49999999999988
 30
0.0
 11
136.8235949999999
 21
80.50000000000011
 31
0.0
  0
LINE
  5
4FB7
330
A
100
AcDbEntity
  8
0
  6
Continuous
 62
     9
100
AcDbLine
 10
138.3235949999999
 20
-7.499999999999886
 30
0.0
 11
137.3235949999999
 21
-7.499999999999886
 31
0.0
  0
LINE
  5
4FB8
330
A
100
AcDbEntity
  8
0
  6
Continuous
 62
     9
100
AcDbLine
 10
137.3235949999999
 20
-7.499999999999886
 30
0.0
 11
136.8235949999999
 21
-7.499999999999886
 31
0.0
  0
LINE
  5
4FB9
330
A
100
AcDbEntity
  8
0
  6
Continuous
 62
     7
100
AcDbLine
 10
138.3235949999999
 20
-13.49999999999988
 30
0.0
 11
137.3235949999999
 21
-13.49999999999988
 31
0.0
  0
LINE
  5
4FBA
330
A
100
AcDbEntity
  8
0
  6
Continuous
 62
     7
100
AcDbLine
 10
137.3235949999999
 20
-13.49999999999988
 30
0.0
 11
136.8235949999999
 21
-13.49999999999988
 31
0.0
  0
LINE
  5
4FBB
330
A
100
AcDbEntity
  8
0
  6
Continuous
 62
     7
100
AcDbLine
 10
138.3235949999999
 20
-13.49999999999988
 30
0.0
 11
138.3235949999999
 21
-7.499999999999886
 31
0.0
  0
LINE
  5
4FBC
330
A
100
AcDbEntity
  8
0
  6
Continuous
 62
     9
100
AcDbLine
 10
138.3235949999999
 20
77.50000000000011
 30
0.0
 11
137.3235949999999
 21
77.50000000000011
 31
0.0
  0
LINE
  5
4FBD
330
A
100
AcDbEntity
  8
0
  6
Continuous
 62
     9
100
AcDbLine
 10
137.3235949999999
 20
77.50000000000011
 30
0.0
 11
136.8235949999999
 21
77.50000000000011
 31
0.0
  0
LINE
  5
4FBE
330
A
100
AcDbEntity
  8
0
  6
Continuous
 62
     7
100
AcDbLine
 10
138.3235949999999
 20
-7.499999999999886
 30
0.0
 11
138.3235949999999
 21
77.50000000000011
 31
0.0
  0
LINE
  5
4FBF
330
A
100
AcDbEntity
  8
0
  6
Continuous
 62
     7
100
AcDbLine
 10
138.3235949999999
 20
83.50000000000012
 30
0.0
 11
137.3235949999999
 21
83.50000000000012
 31
0.0
  0
LINE
  5
4FC0
330
A
100
AcDbEntity
  8
0
  6
Continuous
 62
     7
100
AcDbLine
 10
137.3235949999999
 20
83.50000000000012
 30
0.0
 11
136.8235949999999
 21
83.50000000000012
 31
0.0
  0
LINE
  5
4FC1
330
A
100
AcDbEntity
  8
0
  6
Continuous
 62
     7
100
AcDbLine
 10
138.3235949999999
 20
77.50000000000011
 30
0.0
 11
138.3235949999999
 21
83.50000000000012
 31
0.0
  0
LINE
  5
4FC2
330
A
100
AcDbEntity
  8
0
  6
Continuous
 62
     9
100
AcDbLine
 10
147.8235949999997
 20
-7.499999999999886
 30
0.0
 11
147.3235949999998
 21
-7.499999999999886
 31
0.0
  0
LINE
  5
4FC3
330
A
100
AcDbEntity
  8
0
  6
Continuous
 62
     9
100
AcDbLine
 10
147.3235949999998
 20
-7.499999999999886
 30
0.0
 11
146.3235949999999
 21
-7.499999999999886
 31
0.0
  0
LINE
  5
4FC4
330
A
100
AcDbEntity
  8
0
  6
Continuous
 62
     7
100
AcDbLine
 10
147.8235949999997
 20
-13.49999999999988
 30
0.0
 11
147.3235949999998
 21
-13.49999999999988
 31
0.0
  0
LINE
  5
4FC5
330
A
100
AcDbEntity
  8
0
  6
Continuous
 62
     7
100
AcDbLine
 10
147.3235949999998
 20
-13.49999999999988
 30
0.0
 11
146.3235949999999
 21
-13.49999999999988
 31
0.0
  0
LINE
  5
4FC6
330
A
100
AcDbEntity
  8
0
  6
Continuous
 62
     7
100
AcDbLine
 10
146.3235949999999
 20
-13.49999999999988
 30
0.0
 11
146.3235949999999
 21
-7.499999999999886
 31
0.0
  0
LINE
  5
4FC7
330
A
100
AcDbEntity
  8
0
  6
Continuous
 62
     9
100
AcDbLine
 10
147.8235949999997
 20
77.50000000000011
 30
0.0
 11
147.3235949999998
 21
77.50000000000011
 31
0.0
  0
LINE
  5
4FC8
330
A
100
AcDbEntity
  8
0
  6
Continuous
 62
     9
100
AcDbLine
 10
147.3235949999998
 20
77.50000000000011
 30
0.0
 11
146.3235949999999
 21
77.50000000000011
 31
0.0
  0
LINE
  5
4FC9
330
A
100
AcDbEntity
  8
0
  6
Continuous
 62
     7
100
AcDbLine
 10
146.3235949999999
 20
-7.499999999999886
 30
0.0
 11
146.3235949999999
 21
77.50000000000011
 31
0.0
  0
LINE
  5
4FCA
330
A
100
AcDbEntity
  8
0
  6
Continuous
 62
     7
100
AcDbLine
 10
147.8235949999997
 20
83.50000000000012
 30
0.0
 11
147.3235949999998
 21
83.50000000000012
 31
0.0
  0
LINE
  5
4FCB
330
A
100
AcDbEntity
  8
0
  6
Continuous
 62
     7
100
AcDbLine
 10
147.3235949999998
 20
83.50000000000012
 30
0.0
 11
146.3235949999999
 21
83.50000000000012
 31
0.0
  0
LINE
  5
4FCC
330
A
100
AcDbEntity
  8
0
  6
Continuous
 62
     7
100
AcDbLine
 10
146.3235949999999
 20
77.50000000000011
 30
0.0
 11
146.3235949999999
 21
83.50000000000012
 31
0.0
  0
LINE
  5
4FCD
330
A
100
AcDbEntity
  8
0
  6
Continuous
 62
     9
100
AcDbLine
 10
137.3235949999999
 20
-7.499999999999886
 30
0.0
 11
136.8235949999999
 21
-7.499999999999886
 31
0.0
  0
LINE
  5
4FCE
330
A
100
AcDbEntity
  8
0
  6
Continuous
 62
     7
100
AcDbLine
 10
137.3235949999999
 20
-13.49999999999988
 30
0.0
 11
136.8235949999999
 21
-13.49999999999988
 31
0.0
  0
LINE
  5
4FCF
330
A
100
AcDbEntity
  8
0
  6
Continuous
 62
     7
100
AcDbLine
 10
137.3235949999999
 20
-13.49999999999988
 30
0.0
 11
137.3235949999999
 21
-7.499999999999886
 31
0.0
  0
LINE
  5
4FD0
330
A
100
AcDbEntity
  8
0
  6
Continuous
 62
     9
100
AcDbLine
 10
137.3235949999999
 20
77.50000000000011
 30
0.0
 11
136.8235949999999
 21
77.50000000000011
 31
0.0
  0
LINE
  5
4FD1
330
A
100
AcDbEntity
  8
0
  6
Continuous
 62
     7
100
AcDbLine
 10
137.3235949999999
 20
-7.499999999999886
 30
0.0
 11
137.3235949999999
 21
77.50000000000011
 31
0.0
  0
LINE
  5
4FD2
330
A
100
AcDbEntity
  8
0
  6
Continuous
 62
     7
100
AcDbLine
 10
137.3235949999999
 20
83.50000000000012
 30
0.0
 11
136.8235949999999
 21
83.50000000000012
 31
0.0
  0
LINE
  5
4FD3
330
A
100
AcDbEntity
  8
0
  6
Continuous
 62
     7
100
AcDbLine
 10
137.3235949999999
 20
77.50000000000011
 30
0.0
 11
137.3235949999999
 21
83.50000000000012
 31
0.0
  0
LINE
  5
4FD4
330
A
100
AcDbEntity
  8
0
  6
Continuous
 62
     9
100
AcDbLine
 10
147.8235949999997
 20
-7.499999999999886
 30
0.0
 11
147.3235949999998
 21
-7.499999999999886
 31
0.0
  0
LINE
  5
4FD5
330
A
100
AcDbEntity
  8
0
  6
Continuous
 62
     7
100
AcDbLine
 10
147.8235949999997
 20
-13.49999999999988
 30
0.0
 11
147.3235949999998
 21
-13.49999999999988
 31
0.0
  0
LINE
  5
4FD6
330
A
100
AcDbEntity
  8
0
  6
Continuous
 62
     7
100
AcDbLine
 10
147.3235949999998
 20
-13.49999999999988
 30
0.0
 11
147.3235949999998
 21
-7.499999999999886
 31
0.0
  0
LINE
  5
4FD7
330
A
100
AcDbEntity
  8
0
  6
Continuous
 62
     9
100
AcDbLine
 10
147.8235949999997
 20
77.50000000000011
 30
0.0
 11
147.3235949999998
 21
77.50000000000011
 31
0.0
  0
LINE
  5
4FD8
330
A
100
AcDbEntity
  8
0
  6
Continuous
 62
     7
100
AcDbLine
 10
147.3235949999998
 20
-7.499999999999886
 30
0.0
 11
147.3235949999998
 21
77.50000000000011
 31
0.0
  0
LINE
  5
4FD9
330
A
100
AcDbEntity
  8
0
  6
Continuous
 62
     7
100
AcDbLine
 10
147.8235949999997
 20
83.50000000000012
 30
0.0
 11
147.3235949999998
 21
83.50000000000012
 31
0.0
  0
LINE
  5
4FDA
330
A
100
AcDbEntity
  8
0
  6
Continuous
 62
     7
100
AcDbLine
 10
147.3235949999998
 20
77.50000000000011
 30
0.0
 11
147.3235949999998
 21
83.50000000000012
 31
0.0
  0
LINE
  5
4FDB
330
A
100
AcDbEntity
  8
0
  6
Continuous
 62
     7
100
AcDbLine
 10
129.7235949999997
 20
0.0201710000001185
 30
0.0
 11
129.7235949999997
 21
9.979829000000108
 31
0.0
  0
LINE
  5
4FDC
330
A
100
AcDbEntity
  8
0
  6
Continuous
 62
     7
100
AcDbLine
 10
129.7235949999997
 20
60.02017100000012
 30
0.0
 11
129.7235949999997
 21
69.9798290000001
 31
0.0
  0
LINE
  5
4FDD
330
A
100
AcDbEntity
  8
0
  6
Continuous
 62
     9
100
AcDbLine
 10
129.8235949999999
 20
-14.99999999999988
 30
0.0
 11
129.8235949999999
 21
-13.99999999999989
 31
0.0
  0
LINE
  5
4FDE
330
A
100
AcDbEntity
  8
0
  6
Continuous
 62
     9
100
AcDbLine
 10
129.8235949999999
 20
84.00000000000011
 30
0.0
 11
129.8235949999999
 21
85.00000000000012
 31
0.0
  0
LINE
  5
4FDF
330
A
100
AcDbEntity
  8
0
  6
Continuous
 62
     7
100
AcDbLine
 10
129.8235949999999
 20
85.00000000000012
 30
0.0
 11
130.5847179999999
 21
85.00000000000012
 31
0.0
  0
LINE
  5
4FE0
330
A
100
AcDbEntity
  8
0
  6
Continuous
 62
     7
100
AcDbLine
 10
130.5847179999999
 20
85.00000000000012
 30
0.0
 11
130.5847179999999
 21
84.9710500000001
 31
0.0
  0
LINE
  5
4FE1
330
A
100
AcDbEntity
  8
0
  6
Continuous
 62
     7
100
AcDbLine
 10
130.5847179999999
 20
-14.99999999999988
 30
0.0
 11
130.5847179999999
 21
-14.97104999999988
 31
0.0
  0
LINE
  5
4FE2
330
A
100
AcDbEntity
  8
0
  6
Continuous
 62
     7
100
AcDbLine
 10
129.8235949999999
 20
-14.99999999999988
 30
0.0
 11
130.5847179999999
 21
-14.99999999999988
 31
0.0
  0
LINE
  5
4FE3
330
A
100
AcDbEntity
  8
0
  6
Continuous
 62
     7
100
AcDbLine
 10
136.8235949999999
 20
-14.99999999999988
 30
0.0
 11
147.8235949999997
 21
-14.99999999999988
 31
0.0
  0
LINE
  5
4FE4
330
A
100
AcDbEntity
  8
0
  6
Continuous
 62
     7
100
AcDbLine
 10
130.5847179999999
 20
-14.99999999999988
 30
0.0
 11
130.8235949999998
 21
-14.99999999999988
 31
0.0
  0
LINE
  5
4FE5
330
A
100
AcDbEntity
  8
0
  6
Continuous
 62
     7
100
AcDbLine
 10
130.8235949999998
 20
85.00000000000012
 30
0.0
 11
130.5847179999999
 21
85.00000000000012
 31
0.0
  0
LINE
  5
4FE6
330
A
100
AcDbEntity
  8
0
  6
Continuous
 62
     7
100
AcDbLine
 10
147.8235949999997
 20
85.00000000000012
 30
0.0
 11
136.8235949999999
 21
85.00000000000012
 31
0.0
  0
LINE
  5
4FE7
330
A
100
AcDbEntity
  8
0
  6
Continuous
 62
     7
100
AcDbLine
 10
103.3235949999999
 20
-14.99999999999988
 30
0.0
 11
103.3235949999999
 21
85.00000000000012
 31
0.0
  0
CIRCLE
  5
4FE8
330
A
100
AcDbEntity
  8
0
  6
Continuous
 62
     7
100
AcDbCircle
 10
110.3235949999997
 20
75.00000000000011
 30
0.0
 40
5.0
  0
CIRCLE
  5
4FE9
330
A
100
AcDbEntity
  8
0
  6
Continuous
 62
     7
100
AcDbCircle
 10
119.3235949999999
 20
35.00000000000011
 30
0.0
 40
5.0
  0
CIRCLE
  5
4FEA
330
A
100
AcDbEntity
  8
0
  6
Continuous
 62
     7
100
AcDbCircle
 10
110.3235949999997
 20
-4.999999999999886
 30
0.0
 40
5.0
  0
LINE
  5
4FEB
330
A
100
AcDbEntity
  8
0
  6
Continuous
 62
     7
100
AcDbLine
 10
129.8235949999999
 20
85.00000000000012
 30
0.0
 11
103.3235949999999
 21
85.00000000000012
 31
0.0
  0
LINE
  5
4FEC
330
A
100
AcDbEntity
  8
0
  6
Continuous
 62
     7
100
AcDbLine
 10
129.8235949999999
 20
-14.99999999999988
 30
0.0
 11
103.3235949999999
 21
-14.99999999999988
 31
0.0
  0
CIRCLE
  5
4FED
330
A
100
AcDbEntity
  8
0
  6
Continuous
 62
     7
100
AcDbCircle
 10
110.3235949999997
 20
-4.999999999999886
 30
0.0
 40
2.649999999999999
  0
CIRCLE
  5
4FEE
330
A
100
AcDbEntity
  8
0
  6
Continuous
 62
     7
100
AcDbCircle
 10
119.3235949999999
 20
35.00000000000011
 30
0.0
 40
2.649999999999999
  0
CIRCLE
  5
4FEF
330
A
100
AcDbEntity
  8
0
  6
Continuous
 62
     7
100
AcDbCircle
 10
110.3235949999997
 20
75.00000000000011
 30
0.0
 40
2.649999999999999
  0
LINE
  5
4FF0
330
A
100
AcDbEntity
  8
0
  6
Continuous
 62
     9
100
AcDbLine
 10
138.3235949999999
 20
1.000000000000113
 30
0.0
 11
146.3235949999999
 21
1.000000000000113
 31
0.0
  0
LINE
  5
4FF1
330
A
100
AcDbEntity
  8
0
  6
Continuous
 62
     9
100
AcDbLine
 10
138.3235949999999
 20
69.00000000000011
 30
0.0
 11
146.3235949999999
 21
69.00000000000011
 31
0.0
  0
LINE
  5
4FF2
330
A
100
AcDbEntity
  8
0
  6
Continuous
 62
     7
100
AcDbLine
 10
138.3235949999999
 20
-5.999999999999886
 30
0.0
 11
146.3235949999999
 21
-5.999999999999886
 31
0.0
  0
LINE
  5
4FF3
330
A
100
AcDbEntity
  8
0
  6
Continuous
 62
     7
100
AcDbLine
 10
138.3235949999999
 20
76.00000000000012
 30
0.0
 11
146.3235949999999
 21
76.00000000000012
 31
0.0
  0
LINE
  5
4FF4
330
A
100
AcDbEntity
  8
0
  6
Continuous
 62
     9
100
AcDbLine
 10
153.8235949999999
 20
-14.99999999999988
 30
0.0
 11
153.8235949999999
 21
-10.49999999999988
 31
0.0
  0
LINE
  5
4FF5
330
A
100
AcDbEntity
  8
0
  6
Continuous
 62
     9
100
AcDbLine
 10
153.8235949999999
 20
-10.49999999999988
 30
0.0
 11
154.8235949999999
 21
-10.49999999999988
 31
0.0
  0
LINE
  5
4FF6
330
A
100
AcDbEntity
  8
0
  6
Continuous
 62
     7
100
AcDbLine
 10
154.8235949999999
 20
-10.49999999999988
 30
0.0
 11
154.8235949999999
 21
-13.99999999999989
 31
0.0
  0
ARC
  5
4FF7
330
A
100
AcDbEntity
  8
0
  6
Continuous
 62
     7
100
AcDbCircle
 10
153.8235949999999
 20
-13.99999999999989
 30
0.0
 40
1.0
100
AcDbArc
 50
270.0
 51
0.0
  0
LINE
  5
4FF8
330
A
100
AcDbEntity
  8
0
  6
Continuous
 62
     7
100
AcDbLine
 10
147.8235949999997
 20
85.00000000000012
 30
0.0
 11
153.8235949999999
 21
85.00000000000012
 31
0.0
  0
LINE
  5
4FF9
330
A
100
AcDbEntity
  8
0
  6
Continuous
 62
     9
100
AcDbLine
 10
153.8235949999999
 20
80.50000000000011
 30
0.0
 11
153.8235949999999
 21
85.00000000000012
 31
0.0
  0
LINE
  5
4FFA
330
A
100
AcDbEntity
  8
0
  6
Continuous
 62
     9
100
AcDbLine
 10
153.8235949999999
 20
80.50000000000011
 30
0.0
 11
147.8235949999997
 21
80.50000000000011
 31
0.0
  0
LINE
  5
4FFB
330
A
100
AcDbEntity
  8
0
  6
Continuous
 62
     7
100
AcDbLine
 10
147.8235949999997
 20
80.50000000000011
 30
0.0
 11
147.8235949999997
 21
85.00000000000012
 31
0.0
  0
LINE
  5
4FFC
330
A
100
AcDbEntity
  8
0
  6
Continuous
 62
     7
100
AcDbLine
 10
154.8235949999999
 20
84.00000000000011
 30
0.0
 11
154.8235949999999
 21
80.50000000000011
 31
0.0
  0
LINE
  5
4FFD
330
A
100
AcDbEntity
  8
0
  6
Continuous
 62
     9
100
AcDbLine
 10
154.8235949999999
 20
80.50000000000011
 30
0.0
 11
153.8235949999999
 21
80.50000000000011
 31
0.0
  0
ARC
  5
4FFE
330
A
100
AcDbEntity
  8
0
  6
Continuous
 62
     7
100
AcDbCircle
 10
153.8235949999999
 20
84.00000000000011
 30
0.0
 40
1.0
100
AcDbArc
 50
0.0
 51
90.0
  0
LINE
  5
4FFF
330
A
100
AcDbEntity
  8
0
  6
Continuous
 62
     9
100
AcDbLine
 10
147.8235949999997
 20
-10.49999999999988
 30
0.0
 11
153.8235949999999
 21
-10.49999999999988
 31
0.0
  0
LINE
  5
5000
330
A
100
AcDbEntity
  8
0
  6
Continuous
 62
     7
100
AcDbLine
 10
153.8235949999999
 20
-14.99999999999988
 30
0.0
 11
147.8235949999997
 21
-14.99999999999988
 31
0.0
  0
LINE
  5
5001
330
A
100
AcDbEntity
  8
0
  6
Continuous
 62
     7
100
AcDbLine
 10
147.8235949999997
 20
-14.99999999999988
 30
0.0
 11
147.8235949999997
 21
-10.49999999999988
 31
0.0
  0
LINE
  5
5002
330
A
100
AcDbEntity
  8
0
  6
Continuous
 62
     7
100
AcDbLine
 10
154.8235949999999
 20
80.50000000000011
 30
0.0
 11
154.8235949999999
 21
-10.49999999999988
 31
0.0
  0
LINE
  5
5003
330
A
100
AcDbEntity
  8
0
  6
Continuous
 62
     9
100
AcDbLine
 10
153.8235949999999
 20
-10.49999999999988
 30
0.0
 11
153.8235949999999
 21
80.50000000000011
 31
0.0
  0
LINE
  5
5004
330
A
100
AcDbEntity
  8
0
  6
Continuous
 62
     7
100
AcDbLine
 10
147.8235949999997
 20
-10.49999999999988
 30
0.0
 11
147.8235949999997
 21
80.50000000000011
 31
0.0
  0
LINE
  5
5005
330
A
100
AcDbEntity
  8
0
  6
Continuous
 62
     9
100
AcDbLine
 10
124.8320719999999
 20
41.00000000000011
 30
0.0
 11
124.8320719999999
 21
29.00000000000011
 31
0.0
  0
LINE
  5
5006
330
A
100
AcDbEntity
  8
0
  6
Continuous
 62
     7
100
AcDbLine
 10
124.8320719999999
 20
41.00000000000011
 30
0.0
 11
129.8235949999999
 21
41.00000000000011
 31
0.0
  0
LINE
  5
5007
330
A
100
AcDbEntity
  8
0
  6
Continuous
 62
     7
100
AcDbLine
 10
124.8320719999999
 20
29.00000000000011
 30
0.0
 11
129.8235949999999
 21
29.00000000000011
 31
0.0
  0
LINE
  5
5008
330
A
100
AcDbEntity
  8
0
  6
Continuous
 62
     9
100
AcDbLine
 10
159.8151179999997
 20
29.00000000000011
 30
0.0
 11
159.8151179999997
 21
41.00000000000011
 31
0.0
  0
LINE
  5
5009
330
A
100
AcDbEntity
  8
0
  6
Continuous
 62
     7
100
AcDbLine
 10
154.8235949999999
 20
41.00000000000011
 30
0.0
 11
159.8151179999997
 21
41.00000000000011
 31
0.0
  0
LINE
  5
500A
330
A
100
AcDbEntity
  8
0
  6
Continuous
 62
     7
100
AcDbLine
 10
154.8235949999999
 20
29.00000000000011
 30
0.0
 11
159.8151179999997
 21
29.00000000000011
 31
0.0
  0
LINE
  5
500B
330
A
100
AcDbEntity
  8
0
  6
Continuous
 62
     7
100
AcDbLine
 10
159.9344079999999
 20
29.00000000000011
 30
0.0
 11
159.8151179999997
 21
29.00000000000011
 31
0.0
  0
LINE
  5
500C
330
A
100
AcDbEntity
  8
0
  6
Continuous
 62
     7
100
AcDbLine
 10
159.8151179999997
 20
41.00000000000011
 30
0.0
 11
159.9344079999999
 21
41.00000000000011
 31
0.0
  0
LINE
  5
500D
330
A
100
AcDbEntity
  8
0
  6
Continuous
 62
     7
100
AcDbLine
 10
124.7127819999997
 20
41.00000000000011
 30
0.0
 11
124.8320719999999
 21
41.00000000000011
 31
0.0
  0
LINE
  5
500E
330
A
100
AcDbEntity
  8
0
  6
Continuous
 62
     7
100
AcDbLine
 10
124.8320719999999
 20
29.00000000000011
 30
0.0
 11
124.7127819999997
 21
29.00000000000011
 31
0.0
  0
LINE
  5
500F
330
A
100
AcDbEntity
  8
0
  6
Continuous
 62
     7
100
AcDbLine
 10
124.6207859999997
 20
41.00000000000011
 30
0.0
 11
124.7193589999997
 21
41.00000000000011
 31
0.0
  0
LINE
  5
5010
330
A
100
AcDbEntity
  8
0
  6
Continuous
 62
     7
100
AcDbLine
 10
124.7193589999997
 20
29.00000000000011
 30
0.0
 11
124.6207859999997
 21
29.00000000000011
 31
0.0
  0
LINE
  5
5011
330
A
100
AcDbEntity
  8
0
  6
Continuous
 62
     7
100
AcDbLine
 10
160.0264049999999
 20
29.00000000000011
 30
0.0
 11
159.9278319999999
 21
29.00000000000011
 31
0.0
  0
LINE
  5
5012
330
A
100
AcDbEntity
  8
0
  6
Continuous
 62
     7
100
AcDbLine
 10
159.9278319999999
 20
41.00000000000011
 30
0.0
 11
160.0264049999999
 21
41.00000000000011
 31
0.0
  0
ARC
  5
5013
330
A
100
AcDbEntity
  8
0
  6
Continuous
 62
     7
100
AcDbCircle
 10
130.2235949999997
 20
0.0201710000001185
 30
0.0
 40
0.5
100
AcDbArc
 50
180.0
 51
216.8698980000006
  0
ARC
  5
5014
330
A
100
AcDbEntity
  8
0
  6
Continuous
 62
     7
100
AcDbCircle
 10
130.2235949999997
 20
9.979829000000108
 30
0.0
 40
0.5
100
AcDbArc
 50
143.1301019999994
 51
180.0
  0
ARC
  5
5015
330
A
100
AcDbEntity
  8
0
  6
Continuous
 62
     7
100
AcDbCircle
 10
130.2235949999997
 20
60.02017100000012
 30
0.0
 40
0.5
100
AcDbArc
 50
180.0
 51
216.8698980000006
  0
ARC
  5
5016
330
A
100
AcDbEntity
  8
0
  6
Continuous
 62
     7
100
AcDbCircle
 10
130.2235949999997
 20
69.9798290000001
 30
0.0
 40
0.5
100
AcDbArc
 50
143.1301019999994
 51
180.0
  0
LINE
  5
5017
330
A
100
AcDbEntity
  8
0
  6
Continuous
 62
     7
100
AcDbLine
 10
159.9344079999999
 20
29.00000000000011
 30
0.0
 11
159.9344079999999
 21
41.00000000000011
 31
0.0
  0
LINE
  5
5018
330
A
100
AcDbEntity
  8
0
  6
Continuous
 62
     7
100
AcDbLine
 10
124.7127819999997
 20
41.00000000000011
 30
0.0
 11
124.7127819999997
 21
29.00000000000011
 31
0.0
  0
LINE
  5
5019
330
A
100
AcDbEntity
  8
0
  6
Continuous
 62
     7
100
AcDbLine
 10
124.6207859999997
 20
41.00000000000011
 30
0.0
 11
124.6207859999997
 21
29.00000000000011
 31
0.0
  0
LINE
  5
501A
330
A
100
AcDbEntity
  8
0
  6
Continuous
 62
     7
100
AcDbLine
 10
160.0264049999999
 20
29.00000000000011
 30
0.0
 11
160.0264049999999
 21
41.00000000000011
 31
0.0
  0
ARC
  5
501B
330
A
100
AcDbEntity
  8
0
  6
Continuous
 62
     9
100
AcDbCircle
 10
58.8499999999998
 20
-69.64859499999988
 30
0.0
 40
3.0
100
AcDbArc
 50
0.0
 51
90.0
  0
LINE
  5
501C
330
A
100
AcDbEntity
  8
0
  6
Continuous
 62
     9
100
AcDbLine
 10
58.8499999999998
 20
-66.64859499999988
 30
0.0
 11
58.8499999999998
 21
-65.64859499999989
 31
0.0
  0
ARC
  5
501D
330
A
100
AcDbEntity
  8
0
  6
Continuous
 62
     7
100
AcDbCircle
 10
58.8499999999998
 20
-69.64859499999988
 30
0.0
 40
4.0
100
AcDbArc
 50
0.0
 51
90.0
  0
LINE
  5
501E
330
A
100
AcDbEntity
  8
0
  6
Continuous
 62
     9
100
AcDbLine
 10
61.8499999999998
 20
-69.64859499999988
 30
0.0
 11
62.84999999999979
 21
-69.64859499999988
 31
0.0
  0
LINE
  5
501F
330
A
100
AcDbEntity
  8
0
  6
Continuous
 62
     7
100
AcDbLine
 10
-16.15000000000003
 20
-65.64859499999989
 30
0.0
 11
-12.65000000000003
 21
-65.64859499999989
 31
0.0
  0
LINE
  5
5020
330
A
100
AcDbEntity
  8
0
  6
Continuous
 62
     9
100
AcDbLine
 10
-12.65000000000003
 20
-65.64859499999989
 30
0.0
 11
-12.65000000000003
 21
-66.64859499999988
 31
0.0
  0
LINE
  5
5021
330
A
100
AcDbEntity
  8
0
  6
Continuous
 62
     9
100
AcDbLine
 10
-12.65000000000003
 20
-66.64859499999988
 30
0.0
 11
-17.15000000000003
 21
-66.64859499999988
 31
0.0
  0
ARC
  5
5022
330
A
100
AcDbEntity
  8
0
  6
Continuous
 62
     7
100
AcDbCircle
 10
-16.15000000000003
 20
-66.64859499999988
 30
0.0
 40
1.0
100
AcDbArc
 50
90.0
 51
180.0
  0
LINE
  5
5023
330
A
100
AcDbEntity
  8
0
  6
Continuous
 62
     7
100
AcDbLine
 10
-12.65000000000003
 20
-65.64859499999989
 30
0.0
 11
58.8499999999998
 21
-65.64859499999989
 31
0.0
  0
LINE
  5
5024
330
A
100
AcDbEntity
  8
0
  6
Continuous
 62
     9
100
AcDbLine
 10
58.8499999999998
 20
-66.64859499999988
 30
0.0
 11
-12.65000000000003
 21
-66.64859499999988
 31
0.0
  0
LINE
  5
5025
330
A
100
AcDbEntity
  8
0
  6
Continuous
 62
     7
100
AcDbLine
 10
-12.65000000000003
 20
-72.64859499999989
 30
0.0
 11
-17.15000000000003
 21
-72.64859499999989
 31
0.0
  0
LINE
  5
5026
330
A
100
AcDbEntity
  8
0
  6
Continuous
 62
     7
100
AcDbLine
 10
-17.15000000000003
 20
-72.64859499999989
 30
0.0
 11
-17.15000000000003
 21
-66.64859499999988
 31
0.0
  0
LINE
  5
5027
330
A
100
AcDbEntity
  8
0
  6
Continuous
 62
     9
100
AcDbLine
 10
-12.65000000000003
 20
-66.64859499999988
 30
0.0
 11
-12.65000000000003
 21
-72.64859499999989
 31
0.0
  0
LINE
  5
5028
330
A
100
AcDbEntity
  8
0
  6
Continuous
 62
     9
100
AcDbLine
 10
61.8499999999998
 20
-72.64859499999989
 30
0.0
 11
61.8499999999998
 21
-69.64859499999988
 31
0.0
  0
LINE
  5
5029
330
A
100
AcDbEntity
  8
0
  6
Continuous
 62
     7
100
AcDbLine
 10
-12.65000000000003
 20
-72.64859499999989
 30
0.0
 11
61.8499999999998
 21
-72.64859499999989
 31
0.0
  0
LINE
  5
502A
330
A
100
AcDbEntity
  8
0
  6
Continuous
 62
     7
100
AcDbLine
 10
62.84999999999979
 20
-69.64859499999988
 30
0.0
 11
62.84999999999979
 21
-72.64859499999989
 31
0.0
  0
LINE
  5
502B
330
A
100
AcDbEntity
  8
0
  6
Continuous
 62
     7
100
AcDbLine
 10
62.84999999999979
 20
-72.64859499999989
 30
0.0
 11
61.8499999999998
 21
-72.64859499999989
 31
0.0
  0
LINE
  5
502C
330
A
100
AcDbEntity
  8
0
  6
Continuous
 62
     9
100
AcDbLine
 10
-9.50000000000017
 20
-74.14859499999988
 30
0.0
 11
-9.50000000000017
 21
-73.14859499999989
 31
0.0
  0
LINE
  5
502D
330
A
100
AcDbEntity
  8
0
  6
Continuous
 62
     9
100
AcDbLine
 10
-9.50000000000017
 20
-73.14859499999989
 30
0.0
 11
-9.50000000000017
 21
-72.64859499999989
 31
0.0
  0
LINE
  5
502E
330
A
100
AcDbEntity
  8
0
  6
Continuous
 62
     7
100
AcDbLine
 10
-15.50000000000006
 20
-74.14859499999988
 30
0.0
 11
-9.50000000000017
 21
-74.14859499999988
 31
0.0
  0
LINE
  5
502F
330
A
100
AcDbEntity
  8
0
  6
Continuous
 62
     7
100
AcDbLine
 10
-15.50000000000006
 20
-74.14859499999988
 30
0.0
 11
-15.50000000000006
 21
-73.14859499999989
 31
0.0
  0
LINE
  5
5030
330
A
100
AcDbEntity
  8
0
  6
Continuous
 62
     7
100
AcDbLine
 10
-15.50000000000006
 20
-73.14859499999989
 30
0.0
 11
-15.50000000000006
 21
-72.64859499999989
 31
0.0
  0
LINE
  5
5031
330
A
100
AcDbEntity
  8
0
  6
Continuous
 62
     9
100
AcDbLine
 10
55.0
 20
-74.14859499999988
 30
0.0
 11
55.0
 21
-73.14859499999989
 31
0.0
  0
LINE
  5
5032
330
A
100
AcDbEntity
  8
0
  6
Continuous
 62
     9
100
AcDbLine
 10
55.0
 20
-73.14859499999989
 30
0.0
 11
55.0
 21
-72.64859499999989
 31
0.0
  0
LINE
  5
5033
330
A
100
AcDbEntity
  8
0
  6
Continuous
 62
     7
100
AcDbLine
 10
-9.50000000000017
 20
-74.14859499999988
 30
0.0
 11
55.0
 21
-74.14859499999988
 31
0.0
  0
LINE
  5
5034
330
A
100
AcDbEntity
  8
0
  6
Continuous
 62
     7
100
AcDbLine
 10
60.5
 20
-74.14859499999988
 30
0.0
 11
60.5
 21
-73.14859499999989
 31
0.0
  0
LINE
  5
5035
330
A
100
AcDbEntity
  8
0
  6
Continuous
 62
     7
100
AcDbLine
 10
60.5
 20
-73.14859499999989
 30
0.0
 11
60.5
 21
-72.64859499999989
 31
0.0
  0
LINE
  5
5036
330
A
100
AcDbEntity
  8
0
  6
Continuous
 62
     7
100
AcDbLine
 10
55.0
 20
-74.14859499999988
 30
0.0
 11
60.5
 21
-74.14859499999988
 31
0.0
  0
LINE
  5
5037
330
A
100
AcDbEntity
  8
0
  6
Continuous
 62
     9
100
AcDbLine
 10
-9.50000000000017
 20
-83.64859499999989
 30
0.0
 11
-9.50000000000017
 21
-83.14859499999988
 31
0.0
  0
LINE
  5
5038
330
A
100
AcDbEntity
  8
0
  6
Continuous
 62
     9
100
AcDbLine
 10
-9.50000000000017
 20
-83.14859499999988
 30
0.0
 11
-9.50000000000017
 21
-82.14859499999988
 31
0.0
  0
LINE
  5
5039
330
A
100
AcDbEntity
  8
0
  6
Continuous
 62
     7
100
AcDbLine
 10
-15.50000000000006
 20
-83.64859499999989
 30
0.0
 11
-15.50000000000006
 21
-83.14859499999988
 31
0.0
  0
LINE
  5
503A
330
A
100
AcDbEntity
  8
0
  6
Continuous
 62
     7
100
AcDbLine
 10
-15.50000000000006
 20
-83.14859499999988
 30
0.0
 11
-15.50000000000006
 21
-82.14859499999988
 31
0.0
  0
LINE
  5
503B
330
A
100
AcDbEntity
  8
0
  6
Continuous
 62
     7
100
AcDbLine
 10
-15.50000000000006
 20
-82.14859499999988
 30
0.0
 11
-9.50000000000017
 21
-82.14859499999988
 31
0.0
  0
LINE
  5
503C
330
A
100
AcDbEntity
  8
0
  6
Continuous
 62
     9
100
AcDbLine
 10
55.0
 20
-83.64859499999989
 30
0.0
 11
55.0
 21
-83.14859499999988
 31
0.0
  0
LINE
  5
503D
330
A
100
AcDbEntity
  8
0
  6
Continuous
 62
     9
100
AcDbLine
 10
55.0
 20
-83.14859499999988
 30
0.0
 11
55.0
 21
-82.14859499999988
 31
0.0
  0
LINE
  5
503E
330
A
100
AcDbEntity
  8
0
  6
Continuous
 62
     7
100
AcDbLine
 10
-9.50000000000017
 20
-82.14859499999988
 30
0.0
 11
55.0
 21
-82.14859499999988
 31
0.0
  0
LINE
  5
503F
330
A
100
AcDbEntity
  8
0
  6
Continuous
 62
     7
100
AcDbLine
 10
60.5
 20
-83.64859499999989
 30
0.0
 11
60.5
 21
-83.14859499999988
 31
0.0
  0
LINE
  5
5040
330
A
100
AcDbEntity
  8
0
  6
Continuous
 62
     7
100
AcDbLine
 10
60.5
 20
-83.14859499999988
 30
0.0
 11
60.5
 21
-82.14859499999988
 31
0.0
  0
LINE
  5
5041
330
A
100
AcDbEntity
  8
0
  6
Continuous
 62
     7
100
AcDbLine
 10
55.0
 20
-82.14859499999988
 30
0.0
 11
60.5
 21
-82.14859499999988
 31
0.0
  0
LINE
  5
5042
330
A
100
AcDbEntity
  8
0
  6
Continuous
 62
     9
100
AcDbLine
 10
-9.50000000000017
 20
-73.14859499999989
 30
0.0
 11
-9.50000000000017
 21
-72.64859499999989
 31
0.0
  0
LINE
  5
5043
330
A
100
AcDbEntity
  8
0
  6
Continuous
 62
     7
100
AcDbLine
 10
-15.50000000000006
 20
-73.14859499999989
 30
0.0
 11
-9.50000000000017
 21
-73.14859499999989
 31
0.0
  0
LINE
  5
5044
330
A
100
AcDbEntity
  8
0
  6
Continuous
 62
     7
100
AcDbLine
 10
-15.50000000000006
 20
-73.14859499999989
 30
0.0
 11
-15.50000000000006
 21
-72.64859499999989
 31
0.0
  0
LINE
  5
5045
330
A
100
AcDbEntity
  8
0
  6
Continuous
 62
     9
100
AcDbLine
 10
55.0
 20
-73.14859499999989
 30
0.0
 11
55.0
 21
-72.64859499999989
 31
0.0
  0
LINE
  5
5046
330
A
100
AcDbEntity
  8
0
  6
Continuous
 62
     7
100
AcDbLine
 10
-9.50000000000017
 20
-73.14859499999989
 30
0.0
 11
55.0
 21
-73.14859499999989
 31
0.0
  0
LINE
  5
5047
330
A
100
AcDbEntity
  8
0
  6
Continuous
 62
     7
100
AcDbLine
 10
60.5
 20
-73.14859499999989
 30
0.0
 11
60.5
 21
-72.64859499999989
 31
0.0
  0
LINE
  5
5048
330
A
100
AcDbEntity
  8
0
  6
Continuous
 62
     7
100
AcDbLine
 10
55.0
 20
-73.14859499999989
 30
0.0
 11
60.5
 21
-73.14859499999989
 31
0.0
  0
LINE
  5
5049
330
A
100
AcDbEntity
  8
0
  6
Continuous
 62
     9
100
AcDbLine
 10
-9.50000000000017
 20
-83.64859499999989
 30
0.0
 11
-9.50000000000017
 21
-83.14859499999988
 31
0.0
  0
LINE
  5
504A
330
A
100
AcDbEntity
  8
0
  6
Continuous
 62
     7
100
AcDbLine
 10
-15.50000000000006
 20
-83.64859499999989
 30
0.0
 11
-15.50000000000006
 21
-83.14859499999988
 31
0.0
  0
LINE
  5
504B
330
A
100
AcDbEntity
  8
0
  6
Continuous
 62
     7
100
AcDbLine
 10
-15.50000000000006
 20
-83.14859499999988
 30
0.0
 11
-9.50000000000017
 21
-83.14859499999988
 31
0.0
  0
LINE
  5
504C
330
A
100
AcDbEntity
  8
0
  6
Continuous
 62
     9
100
AcDbLine
 10
55.0
 20
-83.64859499999989
 30
0.0
 11
55.0
 21
-83.14859499999988
 31
0.0
  0
LINE
  5
504D
330
A
100
AcDbEntity
  8
0
  6
Continuous
 62
     7
100
AcDbLine
 10
-9.50000000000017
 20
-83.14859499999988
 30
0.0
 11
55.0
 21
-83.14859499999988
 31
0.0
  0
LINE
  5
504E
330
A
100
AcDbEntity
  8
0
  6
Continuous
 62
     7
100
AcDbLine
 10
60.5
 20
-83.64859499999989
 30
0.0
 11
60.5
 21
-83.14859499999988
 31
0.0
  0
LINE
  5
504F
330
A
100
AcDbEntity
  8
0
  6
Continuous
 62
     7
100
AcDbLine
 10
55.0
 20
-83.14859499999988
 30
0.0
 11
60.5
 21
-83.14859499999988
 31
0.0
  0
LINE
  5
5050
330
A
100
AcDbEntity
  8
0
  6
Continuous
 62
     7
100
AcDbLine
 10
17.8701709999998
 20
-65.54859499999989
 30
0.0
 11
22.84999999999991
 21
-65.54859499999989
 31
0.0
  0
LINE
  5
5051
330
A
100
AcDbEntity
  8
0
  6
Continuous
 62
     7
100
AcDbLine
 10
22.84999999999991
 20
-65.54859499999989
 30
0.0
 11
27.82982899999991
 21
-65.54859499999989
 31
0.0
  0
LINE
  5
5052
330
A
100
AcDbEntity
  8
0
  6
Continuous
 62
     7
100
AcDbLine
 10
70.5
 20
-89.14859499999989
 30
0.0
 11
65.80329299999971
 21
-89.14859499999989
 31
0.0
  0
ARC
  5
5053
330
A
100
AcDbEntity
  8
0
  6
Continuous
 62
     7
100
AcDbCircle
 10
49.09999999999979
 20
-78.14859499999989
 30
0.0
 40
20.0
100
AcDbArc
 50
326.632987
 51
35.9404340000001
  0
ARC
  5
5054
330
A
100
AcDbEntity
  8
0
  6
Continuous
 62
     7
100
AcDbCircle
 10
64.0
 20
-65.64859499999989
 30
0.0
 40
1.5
100
AcDbArc
 50
329.5081939999988
 51
0.0
  0
LINE
  5
5055
330
A
100
AcDbEntity
  8
0
  6
Continuous
 62
     7
100
AcDbLine
 10
70.0
 20
-55.14859499999989
 30
0.0
 11
70.5
 21
-55.14859499999989
 31
0.0
  0
LINE
  5
5056
330
A
100
AcDbEntity
  8
0
  6
Continuous
 62
     7
100
AcDbLine
 10
70.0
 20
-73.14859499999989
 30
0.0
 11
70.0
 21
-55.14859499999989
 31
0.0
  0
LINE
  5
5057
330
A
100
AcDbEntity
  8
0
  6
Continuous
 62
     7
100
AcDbLine
 10
70.5
 20
-73.14859499999989
 30
0.0
 11
70.0
 21
-73.14859499999989
 31
0.0
  0
LINE
  5
5058
330
A
100
AcDbEntity
  8
0
  6
Continuous
 62
     7
100
AcDbLine
 10
70.5
 20
-73.14859499999989
 30
0.0
 11
70.5
 21
-89.14859499999989
 31
0.0
  0
LINE
  5
5059
330
A
100
AcDbEntity
  8
0
  6
Continuous
 62
     7
100
AcDbLine
 10
65.5
 20
-65.64859499999989
 30
0.0
 11
65.5
 21
-39.14859499999989
 31
0.0
  0
LINE
  5
505A
330
A
100
AcDbEntity
  8
0
  6
Continuous
 62
     7
100
AcDbLine
 10
65.5
 20
-39.14859499999989
 30
0.0
 11
70.5
 21
-39.14859499999989
 31
0.0
  0
LINE
  5
505B
330
A
100
AcDbEntity
  8
0
  6
Continuous
 62
     7
100
AcDbLine
 10
70.5
 20
-39.14859499999989
 30
0.0
 11
70.5
 21
-55.14859499999989
 31
0.0
  0
ARC
  5
505C
330
A
100
AcDbEntity
  8
0
  6
Continuous
 62
     9
100
AcDbCircle
 10
49.09999999999979
 20
-78.14859499999989
 30
0.0
 40
19.0
100
AcDbArc
 50
324.62346
 51
35.72724600000022
  0
LINE
  5
505D
330
A
100
AcDbEntity
  8
0
  6
Continuous
 62
     7
100
AcDbLine
 10
65.80329299999971
 20
-89.14859499999989
 30
0.0
 11
65.79355999999973
 21
-89.14859499999989
 31
0.0
  0
LINE
  5
505E
330
A
100
AcDbEntity
  8
0
  6
Continuous
 62
     7
100
AcDbLine
 10
65.79355999999973
 20
-89.14859499999989
 30
0.0
 11
65.77898199999992
 21
-89.14859499999989
 31
0.0
  0
LINE
  5
505F
330
A
100
AcDbEntity
  8
0
  6
Continuous
 62
     7
100
AcDbLine
 10
65.77898199999992
 20
-89.14859499999989
 30
0.0
 11
64.5919329999997
 21
-89.14859499999989
 31
0.0
  0
ARC
  5
5060
330
A
100
AcDbEntity
  8
0
  6
Continuous
 62
     7
100
AcDbCircle
 10
63.99997899999971
 20
-65.64856999999989
 30
0.0
 40
1.500030999999999
100
AcDbArc
 50
290.459729999999
 51
329.5077669999995
  0
LINE
  5
5061
330
A
100
AcDbEntity
  8
0
  6
Continuous
 62
     7
100
AcDbLine
 10
64.0
 20
-67.14859499999988
 30
0.0
 11
61.97249899999997
 21
-67.14859499999988
 31
0.0
  0
LINE
  5
5062
330
A
100
AcDbEntity
  8
0
  6
Continuous
 62
     7
100
AcDbLine
 10
62.12249899999983
 20
-89.14859499999989
 30
0.0
 11
64.5919329999997
 21
-89.14859499999989
 31
0.0
  0
ARC
  5
5063
330
A
100
AcDbEntity
  8
0
  6
Continuous
 62
     7
100
AcDbCircle
 10
64.0
 20
-65.64859499999989
 30
0.0
 40
1.5
100
AcDbArc
 50
270.0
 51
290.4593029999987
  0
ARC
  5
5064
330
A
100
AcDbEntity
  8
0
  6
Continuous
 62
     7
100
AcDbCircle
 10
50.0
 20
-78.14859499999989
 30
0.0
 40
4.0
100
AcDbArc
 50
90.0
 51
128.2573410000004
  0
ARC
  5
5065
330
A
100
AcDbEntity
  8
0
  6
Continuous
 62
     7
100
AcDbCircle
 10
50.0
 20
-78.14859499999989
 30
0.0
 40
4.0
100
AcDbArc
 50
270.0
 51
90.0
  0
ARC
  5
5066
330
A
100
AcDbEntity
  8
0
  6
Continuous
 62
     7
100
AcDbCircle
 10
50.0
 20
-78.14859499999989
 30
0.0
 40
4.0
100
AcDbArc
 50
128.2573410000004
 51
270.0
  0
CIRCLE
  5
5067
330
A
100
AcDbEntity
  8
0
  6
Continuous
 62
     7
100
AcDbCircle
 10
50.0
 20
-78.14859499999989
 30
0.0
 40
2.908089
  0
LINE
  5
5068
330
A
100
AcDbEntity
  8
0
  6
Continuous
 62
     7
100
AcDbLine
 10
-5.350000000000193
 20
-74.14859499999988
 30
0.0
 11
-5.350000000000193
 21
-82.14859499999988
 31
0.0
  0
LINE
  5
5069
330
A
100
AcDbEntity
  8
0
  6
Continuous
 62
     9
100
AcDbLine
 10
1.649999999999977
 20
-74.14859499999988
 30
0.0
 11
1.649999999999977
 21
-82.14859499999988
 31
0.0
  0
LINE
  5
506A
330
A
100
AcDbEntity
  8
0
  6
Continuous
 62
     7
100
AcDbLine
 10
8.649999999999977
 20
-74.14859499999988
 30
0.0
 11
8.649999999999977
 21
-82.14859499999988
 31
0.0
  0
LINE
  5
506B
330
A
100
AcDbEntity
  8
0
  6
Continuous
 62
     7
100
AcDbLine
 10
63.0
 20
-83.64859499999989
 30
0.0
 11
63.0
 21
-86.64859499999989
 31
0.0
  0
LINE
  5
506C
330
A
100
AcDbEntity
  8
0
  6
Continuous
 62
     9
100
AcDbLine
 10
63.0
 20
-86.64859499999989
 30
0.0
 11
62.0
 21
-86.64859499999989
 31
0.0
  0
LINE
  5
506D
330
A
100
AcDbEntity
  8
0
  6
Continuous
 62
     9
100
AcDbLine
 10
62.0
 20
-86.64859499999989
 30
0.0
 11
62.0
 21
-83.64859499999989
 31
0.0
  0
LINE
  5
506E
330
A
100
AcDbEntity
  8
0
  6
Continuous
 62
     7
100
AcDbLine
 10
62.0
 20
-83.64859499999989
 30
0.0
 11
63.0
 21
-83.64859499999989
 31
0.0
  0
LINE
  5
506F
330
A
100
AcDbEntity
  8
0
  6
Continuous
 62
     9
100
AcDbLine
 10
-12.50000000000017
 20
-83.64859499999989
 30
0.0
 11
-12.50000000000017
 21
-89.64859499999988
 31
0.0
  0
LINE
  5
5070
330
A
100
AcDbEntity
  8
0
  6
Continuous
 62
     9
100
AcDbLine
 10
-17.00000000000017
 20
-89.64859499999988
 30
0.0
 11
-12.50000000000017
 21
-89.64859499999988
 31
0.0
  0
LINE
  5
5071
330
A
100
AcDbEntity
  8
0
  6
Continuous
 62
     7
100
AcDbLine
 10
-17.00000000000017
 20
-89.64859499999988
 30
0.0
 11
-17.00000000000017
 21
-83.64859499999989
 31
0.0
  0
LINE
  5
5072
330
A
100
AcDbEntity
  8
0
  6
Continuous
 62
     7
100
AcDbLine
 10
-17.00000000000017
 20
-83.64859499999989
 30
0.0
 11
-12.50000000000017
 21
-83.64859499999989
 31
0.0
  0
LINE
  5
5073
330
A
100
AcDbEntity
  8
0
  6
Continuous
 62
     9
100
AcDbLine
 10
-12.50000000000017
 20
-89.64859499999988
 30
0.0
 11
59.0
 21
-89.64859499999988
 31
0.0
  0
ARC
  5
5074
330
A
100
AcDbEntity
  8
0
  6
Continuous
 62
     9
100
AcDbCircle
 10
59.0
 20
-86.64859499999989
 30
0.0
 40
3.0
100
AcDbArc
 50
270.0
 51
0.0
  0
LINE
  5
5075
330
A
100
AcDbEntity
  8
0
  6
Continuous
 62
     7
100
AcDbLine
 10
-12.50000000000017
 20
-83.64859499999989
 30
0.0
 11
62.0
 21
-83.64859499999989
 31
0.0
  0
ARC
  5
5076
330
A
100
AcDbEntity
  8
0
  6
Continuous
 62
     7
100
AcDbCircle
 10
59.0
 20
-86.64859499999989
 30
0.0
 40
4.0
100
AcDbArc
 50
270.0
 51
0.0
  0
LINE
  5
5077
330
A
100
AcDbEntity
  8
0
  6
Continuous
 62
     9
100
AcDbLine
 10
59.0
 20
-90.64859499999988
 30
0.0
 11
59.0
 21
-89.64859499999988
 31
0.0
  0
LINE
  5
5078
330
A
100
AcDbEntity
  8
0
  6
Continuous
 62
     7
100
AcDbLine
 10
59.0
 20
-90.64859499999988
 30
0.0
 11
-12.50000000000017
 21
-90.64859499999988
 31
0.0
  0
LINE
  5
5079
330
A
100
AcDbEntity
  8
0
  6
Continuous
 62
     9
100
AcDbLine
 10
-12.50000000000017
 20
-90.64859499999988
 30
0.0
 11
-12.50000000000017
 21
-89.64859499999988
 31
0.0
  0
LINE
  5
507A
330
A
100
AcDbEntity
  8
0
  6
Continuous
 62
     7
100
AcDbLine
 10
-12.50000000000017
 20
-90.64859499999988
 30
0.0
 11
-16.00000000000006
 21
-90.64859499999988
 31
0.0
  0
ARC
  5
507B
330
A
100
AcDbEntity
  8
0
  6
Continuous
 62
     7
100
AcDbCircle
 10
-16.00000000000006
 20
-89.64859499999988
 30
0.0
 40
1.0
100
AcDbArc
 50
180.0
 51
270.0
  0
ARC
  5
507C
330
A
100
AcDbEntity
  8
0
  6
Continuous
 62
     7
100
AcDbCircle
 10
50.0
 20
-78.14859499999989
 30
0.0
 40
4.009999999999998
100
AcDbArc
 50
274.0472080000015
 51
85.95279999999842
  0
ARC
  5
507D
330
A
100
AcDbEntity
  8
0
  6
Continuous
 62
     7
100
AcDbCircle
 10
50.0
 20
-78.14859499999989
 30
0.0
 40
4.009999999999998
100
AcDbArc
 50
94.04720000000159
 51
265.9527919999985
  0
LINE
  5
507E
330
A
100
AcDbEntity
  8
0
  6
Continuous
 62
     7
100
AcDbLine
 10
60.5
 20
-73.14859499999989
 30
0.0
 11
63.0
 21
-73.14859499999989
 31
0.0
  0
LINE
  5
507F
330
A
100
AcDbEntity
  8
0
  6
Continuous
 62
     7
100
AcDbLine
 10
8.799999999999783
 20
-74.14859499999988
 30
0.0
 11
8.799999999999783
 21
-82.14859499999988
 31
0.0
  0
LINE
  5
5080
330
A
100
AcDbEntity
  8
0
  6
Continuous
 62
     7
100
AcDbLine
 10
63.0
 20
-83.64859499999989
 30
0.0
 11
63.0
 21
-73.14859499999989
 31
0.0
  0
LINE
  5
5081
330
A
100
AcDbEntity
  8
0
  6
Continuous
 62
     7
100
AcDbLine
 10
-15.50000000000006
 20
-83.64859499999989
 30
0.0
 11
-16.00000000000006
 21
-83.64859499999989
 31
0.0
  0
ARC
  5
5082
330
A
100
AcDbEntity
  8
0
  6
Continuous
 62
     7
100
AcDbCircle
 10
52.00564499999984
 20
-89.3694329999999
 30
0.0
 40
6.5
100
AcDbArc
 50
275.130423000001
 51
348.6504460000003
  0
ARC
  5
5083
330
A
100
AcDbEntity
  8
0
  6
Continuous
 62
     7
100
AcDbCircle
 10
52.408049
 20
-93.85140499999989
 30
0.0
 40
2.0
100
AcDbArc
 50
251.9364990000006
 51
275.130423000001
  0
ARC
  5
5084
330
A
100
AcDbEntity
  8
0
  6
Continuous
 62
     7
100
AcDbCircle
 10
50.00499999999999
 20
-101.2194339999999
 30
0.0
 40
5.75
100
AcDbArc
 50
71.93649900000059
 51
105.722807
  0
ARC
  5
5085
330
A
100
AcDbEntity
  8
0
  6
Continuous
 62
     7
100
AcDbCircle
 10
47.90487699999983
 20
-93.75940799999989
 30
0.0
 40
2.0
100
AcDbArc
 50
250.1112599999992
 51
285.722807
  0
ARC
  5
5086
330
A
100
AcDbEntity
  8
0
  6
Continuous
 62
     7
100
AcDbCircle
 10
53.00779799999998
 20
-79.65408299999999
 30
0.0
 40
17.0
100
AcDbArc
 50
220.2959590000005
 51
250.1112599999992
  0
ARC
  5
5087
330
A
100
AcDbEntity
  8
0
  6
Continuous
 62
     7
100
AcDbCircle
 10
53.00779799999998
 20
-76.64310699999998
 30
0.0
 40
17.0
100
AcDbArc
 50
109.8887400000008
 51
139.7040399999989
  0
ARC
  5
5088
330
A
100
AcDbEntity
  8
0
  6
Continuous
 62
     7
100
AcDbCircle
 10
47.90487699999983
 20
-62.53778199999988
 30
0.0
 40
2.0
100
AcDbArc
 50
74.27719300000001
 51
109.8887400000008
  0
ARC
  5
5089
330
A
100
AcDbEntity
  8
0
  6
Continuous
 62
     7
100
AcDbCircle
 10
50.00499999999999
 20
-55.0777569999999
 30
0.0
 40
5.75
100
AcDbArc
 50
254.277193
 51
288.0635009999994
  0
ARC
  5
508A
330
A
100
AcDbEntity
  8
0
  6
Continuous
 62
     7
100
AcDbCircle
 10
52.408049
 20
-62.44578599999988
 30
0.0
 40
2.0
100
AcDbArc
 50
84.86957699999903
 51
108.0635009999994
  0
ARC
  5
508B
330
A
100
AcDbEntity
  8
0
  6
Continuous
 62
     7
100
AcDbCircle
 10
52.00564499999984
 20
-66.92775799999989
 30
0.0
 40
6.5
100
AcDbArc
 50
11.3495550000003
 51
84.86957699999903
  0
ARC
  5
508C
330
A
100
AcDbEntity
  8
0
  6
Continuous
 62
     7
100
AcDbCircle
 10
17.8701709999998
 20
-66.04859499999989
 30
0.0
 40
0.5
100
AcDbArc
 50
90.0
 51
126.8699000000011
  0
ARC
  5
508D
330
A
100
AcDbEntity
  8
0
  6
Continuous
 62
     7
100
AcDbCircle
 10
27.82982899999991
 20
-66.04859499999989
 30
0.0
 40
0.5
100
AcDbArc
 50
53.13009999999884
 51
90.0
  0
LINE
  5
508E
330
A
100
AcDbEntity
  8
0
  6
Continuous
 62
     7
100
AcDbLine
 10
62.84999999999979
 20
145.1485950000001
 30
0.0
 11
62.84999999999979
 21
142.1485950000001
 31
0.0
  0
LINE
  5
508F
330
A
100
AcDbEntity
  8
0
  6
Continuous
 62
     9
100
AcDbLine
 10
62.84999999999979
 20
142.1485950000001
 30
0.0
 11
61.8499999999998
 21
142.1485950000001
 31
0.0
  0
LINE
  5
5090
330
A
100
AcDbEntity
  8
0
  6
Continuous
 62
     9
100
AcDbLine
 10
61.8499999999998
 20
142.1485950000001
 30
0.0
 11
61.8499999999998
 21
145.1485950000001
 31
0.0
  0
LINE
  5
5091
330
A
100
AcDbEntity
  8
0
  6
Continuous
 62
     7
100
AcDbLine
 10
61.8499999999998
 20
145.1485950000001
 30
0.0
 11
62.84999999999979
 21
145.1485950000001
 31
0.0
  0
LINE
  5
5092
330
A
100
AcDbEntity
  8
0
  6
Continuous
 62
     7
100
AcDbLine
 10
-17.15000000000003
 20
145.1485950000001
 30
0.0
 11
-12.65000000000003
 21
145.1485950000001
 31
0.0
  0
LINE
  5
5093
330
A
100
AcDbEntity
  8
0
  6
Continuous
 62
     9
100
AcDbLine
 10
-12.65000000000003
 20
145.1485950000001
 30
0.0
 11
-12.65000000000003
 21
139.1485950000001
 31
0.0
  0
LINE
  5
5094
330
A
100
AcDbEntity
  8
0
  6
Continuous
 62
     9
100
AcDbLine
 10
-17.15000000000003
 20
139.1485950000001
 30
0.0
 11
-12.65000000000003
 21
139.1485950000001
 31
0.0
  0
LINE
  5
5095
330
A
100
AcDbEntity
  8
0
  6
Continuous
 62
     7
100
AcDbLine
 10
-17.15000000000003
 20
139.1485950000001
 30
0.0
 11
-17.15000000000003
 21
145.1485950000001
 31
0.0
  0
LINE
  5
5096
330
A
100
AcDbEntity
  8
0
  6
Continuous
 62
     9
100
AcDbLine
 10
-12.65000000000003
 20
139.1485950000001
 30
0.0
 11
58.8499999999998
 21
139.1485950000001
 31
0.0
  0
ARC
  5
5097
330
A
100
AcDbEntity
  8
0
  6
Continuous
 62
     9
100
AcDbCircle
 10
58.8499999999998
 20
142.1485950000001
 30
0.0
 40
3.0
100
AcDbArc
 50
270.0
 51
0.0
  0
LINE
  5
5098
330
A
100
AcDbEntity
  8
0
  6
Continuous
 62
     7
100
AcDbLine
 10
61.8499999999998
 20
145.1485950000001
 30
0.0
 11
-12.65000000000003
 21
145.1485950000001
 31
0.0
  0
ARC
  5
5099
330
A
100
AcDbEntity
  8
0
  6
Continuous
 62
     7
100
AcDbCircle
 10
58.8499999999998
 20
142.1485950000001
 30
0.0
 40
4.0
100
AcDbArc
 50
270.0
 51
0.0
  0
LINE
  5
509A
330
A
100
AcDbEntity
  8
0
  6
Continuous
 62
     9
100
AcDbLine
 10
58.8499999999998
 20
138.1485950000001
 30
0.0
 11
58.8499999999998
 21
139.1485950000001
 31
0.0
  0
LINE
  5
509B
330
A
100
AcDbEntity
  8
0
  6
Continuous
 62
     7
100
AcDbLine
 10
-12.65000000000003
 20
138.1485950000001
 30
0.0
 11
-16.15000000000003
 21
138.1485950000001
 31
0.0
  0
ARC
  5
509C
330
A
100
AcDbEntity
  8
0
  6
Continuous
 62
     7
100
AcDbCircle
 10
-16.15000000000003
 20
139.1485950000001
 30
0.0
 40
1.0
100
AcDbArc
 50
180.0
 51
270.0
  0
LINE
  5
509D
330
A
100
AcDbEntity
  8
0
  6
Continuous
 62
     9
100
AcDbLine
 10
-12.65000000000003
 20
138.1485950000001
 30
0.0
 11
-12.65000000000003
 21
139.1485950000001
 31
0.0
  0
LINE
  5
509E
330
A
100
AcDbEntity
  8
0
  6
Continuous
 62
     7
100
AcDbLine
 10
58.8499999999998
 20
138.1485950000001
 30
0.0
 11
-12.65000000000003
 21
138.1485950000001
 31
0.0
  0
LINE
  5
509F
330
A
100
AcDbEntity
  8
0
  6
Continuous
 62
     9
100
AcDbLine
 10
55.0
 20
146.6485950000001
 30
0.0
 11
55.0
 21
145.6485950000001
 31
0.0
  0
LINE
  5
50A0
330
A
100
AcDbEntity
  8
0
  6
Continuous
 62
     9
100
AcDbLine
 10
55.0
 20
145.6485950000001
 30
0.0
 11
55.0
 21
145.1485950000001
 31
0.0
  0
LINE
  5
50A1
330
A
100
AcDbEntity
  8
0
  6
Continuous
 62
     7
100
AcDbLine
 10
60.5
 20
146.6485950000001
 30
0.0
 11
60.5
 21
145.6485950000001
 31
0.0
  0
LINE
  5
50A2
330
A
100
AcDbEntity
  8
0
  6
Continuous
 62
     7
100
AcDbLine
 10
60.5
 20
145.6485950000001
 30
0.0
 11
60.5
 21
145.1485950000001
 31
0.0
  0
LINE
  5
50A3
330
A
100
AcDbEntity
  8
0
  6
Continuous
 62
     7
100
AcDbLine
 10
60.5
 20
146.6485950000001
 30
0.0
 11
55.0
 21
146.6485950000001
 31
0.0
  0
LINE
  5
50A4
330
A
100
AcDbEntity
  8
0
  6
Continuous
 62
     9
100
AcDbLine
 10
-9.50000000000017
 20
146.6485950000001
 30
0.0
 11
-9.50000000000017
 21
145.6485950000001
 31
0.0
  0
LINE
  5
50A5
330
A
100
AcDbEntity
  8
0
  6
Continuous
 62
     9
100
AcDbLine
 10
-9.50000000000017
 20
145.6485950000001
 30
0.0
 11
-9.50000000000017
 21
145.1485950000001
 31
0.0
  0
LINE
  5
50A6
330
A
100
AcDbEntity
  8
0
  6
Continuous
 62
     7
100
AcDbLine
 10
55.0
 20
146.6485950000001
 30
0.0
 11
-9.50000000000017
 21
146.6485950000001
 31
0.0
  0
LINE
  5
50A7
330
A
100
AcDbEntity
  8
0
  6
Continuous
 62
     7
100
AcDbLine
 10
-15.50000000000006
 20
146.6485950000001
 30
0.0
 11
-15.50000000000006
 21
145.6485950000001
 31
0.0
  0
LINE
  5
50A8
330
A
100
AcDbEntity
  8
0
  6
Continuous
 62
     7
100
AcDbLine
 10
-15.50000000000006
 20
145.6485950000001
 30
0.0
 11
-15.50000000000006
 21
145.1485950000001
 31
0.0
  0
LINE
  5
50A9
330
A
100
AcDbEntity
  8
0
  6
Continuous
 62
     7
100
AcDbLine
 10
-9.50000000000017
 20
146.6485950000001
 30
0.0
 11
-15.50000000000006
 21
146.6485950000001
 31
0.0
  0
LINE
  5
50AA
330
A
100
AcDbEntity
  8
0
  6
Continuous
 62
     9
100
AcDbLine
 10
55.0
 20
156.1485950000001
 30
0.0
 11
55.0
 21
155.6485950000001
 31
0.0
  0
LINE
  5
50AB
330
A
100
AcDbEntity
  8
0
  6
Continuous
 62
     9
100
AcDbLine
 10
55.0
 20
155.6485950000001
 30
0.0
 11
55.0
 21
154.6485950000001
 31
0.0
  0
LINE
  5
50AC
330
A
100
AcDbEntity
  8
0
  6
Continuous
 62
     7
100
AcDbLine
 10
60.5
 20
156.1485950000001
 30
0.0
 11
60.5
 21
155.6485950000001
 31
0.0
  0
LINE
  5
50AD
330
A
100
AcDbEntity
  8
0
  6
Continuous
 62
     7
100
AcDbLine
 10
60.5
 20
155.6485950000001
 30
0.0
 11
60.5
 21
154.6485950000001
 31
0.0
  0
LINE
  5
50AE
330
A
100
AcDbEntity
  8
0
  6
Continuous
 62
     7
100
AcDbLine
 10
60.5
 20
154.6485950000001
 30
0.0
 11
55.0
 21
154.6485950000001
 31
0.0
  0
LINE
  5
50AF
330
A
100
AcDbEntity
  8
0
  6
Continuous
 62
     9
100
AcDbLine
 10
-9.50000000000017
 20
156.1485950000001
 30
0.0
 11
-9.50000000000017
 21
155.6485950000001
 31
0.0
  0
LINE
  5
50B0
330
A
100
AcDbEntity
  8
0
  6
Continuous
 62
     9
100
AcDbLine
 10
-9.50000000000017
 20
155.6485950000001
 30
0.0
 11
-9.50000000000017
 21
154.6485950000001
 31
0.0
  0
LINE
  5
50B1
330
A
100
AcDbEntity
  8
0
  6
Continuous
 62
     7
100
AcDbLine
 10
55.0
 20
154.6485950000001
 30
0.0
 11
-9.50000000000017
 21
154.6485950000001
 31
0.0
  0
LINE
  5
50B2
330
A
100
AcDbEntity
  8
0
  6
Continuous
 62
     7
100
AcDbLine
 10
-15.50000000000006
 20
156.1485950000001
 30
0.0
 11
-15.50000000000006
 21
155.6485950000001
 31
0.0
  0
LINE
  5
50B3
330
A
100
AcDbEntity
  8
0
  6
Continuous
 62
     7
100
AcDbLine
 10
-15.50000000000006
 20
155.6485950000001
 30
0.0
 11
-15.50000000000006
 21
154.6485950000001
 31
0.0
  0
LINE
  5
50B4
330
A
100
AcDbEntity
  8
0
  6
Continuous
 62
     7
100
AcDbLine
 10
-9.50000000000017
 20
154.6485950000001
 30
0.0
 11
-15.50000000000006
 21
154.6485950000001
 31
0.0
  0
LINE
  5
50B5
330
A
100
AcDbEntity
  8
0
  6
Continuous
 62
     9
100
AcDbLine
 10
55.0
 20
145.6485950000001
 30
0.0
 11
55.0
 21
145.1485950000001
 31
0.0
  0
LINE
  5
50B6
330
A
100
AcDbEntity
  8
0
  6
Continuous
 62
     7
100
AcDbLine
 10
60.5
 20
145.6485950000001
 30
0.0
 11
60.5
 21
145.1485950000001
 31
0.0
  0
LINE
  5
50B7
330
A
100
AcDbEntity
  8
0
  6
Continuous
 62
     7
100
AcDbLine
 10
60.5
 20
145.6485950000001
 30
0.0
 11
55.0
 21
145.6485950000001
 31
0.0
  0
LINE
  5
50B8
330
A
100
AcDbEntity
  8
0
  6
Continuous
 62
     9
100
AcDbLine
 10
-9.50000000000017
 20
145.6485950000001
 30
0.0
 11
-9.50000000000017
 21
145.1485950000001
 31
0.0
  0
LINE
  5
50B9
330
A
100
AcDbEntity
  8
0
  6
Continuous
 62
     7
100
AcDbLine
 10
55.0
 20
145.6485950000001
 30
0.0
 11
-9.50000000000017
 21
145.6485950000001
 31
0.0
  0
LINE
  5
50BA
330
A
100
AcDbEntity
  8
0
  6
Continuous
 62
     7
100
AcDbLine
 10
-15.50000000000006
 20
145.6485950000001
 30
0.0
 11
-15.50000000000006
 21
145.1485950000001
 31
0.0
  0
LINE
  5
50BB
330
A
100
AcDbEntity
  8
0
  6
Continuous
 62
     7
100
AcDbLine
 10
-9.50000000000017
 20
145.6485950000001
 30
0.0
 11
-15.50000000000006
 21
145.6485950000001
 31
0.0
  0
LINE
  5
50BC
330
A
100
AcDbEntity
  8
0
  6
Continuous
 62
     9
100
AcDbLine
 10
55.0
 20
156.1485950000001
 30
0.0
 11
55.0
 21
155.6485950000001
 31
0.0
  0
LINE
  5
50BD
330
A
100
AcDbEntity
  8
0
  6
Continuous
 62
     7
100
AcDbLine
 10
60.5
 20
156.1485950000001
 30
0.0
 11
60.5
 21
155.6485950000001
 31
0.0
  0
LINE
  5
50BE
330
A
100
AcDbEntity
  8
0
  6
Continuous
 62
     7
100
AcDbLine
 10
60.5
 20
155.6485950000001
 30
0.0
 11
55.0
 21
155.6485950000001
 31
0.0
  0
LINE
  5
50BF
330
A
100
AcDbEntity
  8
0
  6
Continuous
 62
     9
100
AcDbLine
 10
-9.50000000000017
 20
156.1485950000001
 30
0.0
 11
-9.50000000000017
 21
155.6485950000001
 31
0.0
  0
LINE
  5
50C0
330
A
100
AcDbEntity
  8
0
  6
Continuous
 62
     7
100
AcDbLine
 10
55.0
 20
155.6485950000001
 30
0.0
 11
-9.50000000000017
 21
155.6485950000001
 31
0.0
  0
LINE
  5
50C1
330
A
100
AcDbEntity
  8
0
  6
Continuous
 62
     7
100
AcDbLine
 10
-15.50000000000006
 20
156.1485950000001
 30
0.0
 11
-15.50000000000006
 21
155.6485950000001
 31
0.0
  0
LINE
  5
50C2
330
A
100
AcDbEntity
  8
0
  6
Continuous
 62
     7
100
AcDbLine
 10
-9.50000000000017
 20
155.6485950000001
 30
0.0
 11
-15.50000000000006
 21
155.6485950000001
 31
0.0
  0
LINE
  5
50C3
330
A
100
AcDbEntity
  8
0
  6
Continuous
 62
     7
100
AcDbLine
 10
27.82982899999991
 20
138.0485950000001
 30
0.0
 11
17.8701709999998
 21
138.0485950000001
 31
0.0
  0
LINE
  5
50C4
330
A
100
AcDbEntity
  8
0
  6
Continuous
 62
     7
100
AcDbLine
 10
70.0
 20
145.6485950000001
 30
0.0
 11
70.0
 21
127.6485950000001
 31
0.0
  0
LINE
  5
50C5
330
A
100
AcDbEntity
  8
0
  6
Continuous
 62
     7
100
AcDbLine
 10
70.0
 20
127.6485950000001
 30
0.0
 11
70.5
 21
127.6485950000001
 31
0.0
  0
LINE
  5
50C6
330
A
100
AcDbEntity
  8
0
  6
Continuous
 62
     7
100
AcDbLine
 10
70.5
 20
111.6485950000001
 30
0.0
 11
70.5
 21
127.6485950000001
 31
0.0
  0
LINE
  5
50C7
330
A
100
AcDbEntity
  8
0
  6
Continuous
 62
     7
100
AcDbLine
 10
65.5
 20
111.6485950000001
 30
0.0
 11
70.5
 21
111.6485950000001
 31
0.0
  0
LINE
  5
50C8
330
A
100
AcDbEntity
  8
0
  6
Continuous
 62
     7
100
AcDbLine
 10
65.5
 20
138.1485950000001
 30
0.0
 11
65.5
 21
111.6485950000001
 31
0.0
  0
ARC
  5
50C9
330
A
100
AcDbEntity
  8
0
  6
Continuous
 62
     7
100
AcDbCircle
 10
64.0
 20
138.1485950000001
 30
0.0
 40
1.5
100
AcDbArc
 50
0.0
 51
30.49180600000117
  0
ARC
  5
50CA
330
A
100
AcDbEntity
  8
0
  6
Continuous
 62
     7
100
AcDbCircle
 10
49.09999999999979
 20
150.6485950000001
 30
0.0
 40
20.0
100
AcDbArc
 50
324.0595659999999
 51
33.36701300000003
  0
LINE
  5
50CB
330
A
100
AcDbEntity
  8
0
  6
Continuous
 62
     7
100
AcDbLine
 10
70.5
 20
161.6485950000001
 30
0.0
 11
65.80329299999971
 21
161.6485950000001
 31
0.0
  0
LINE
  5
50CC
330
A
100
AcDbEntity
  8
0
  6
Continuous
 62
     7
100
AcDbLine
 10
70.5
 20
145.6485950000001
 30
0.0
 11
70.5
 21
161.6485950000001
 31
0.0
  0
LINE
  5
50CD
330
A
100
AcDbEntity
  8
0
  6
Continuous
 62
     7
100
AcDbLine
 10
70.5
 20
145.6485950000001
 30
0.0
 11
70.0
 21
145.6485950000001
 31
0.0
  0
ARC
  5
50CE
330
A
100
AcDbEntity
  8
0
  6
Continuous
 62
     9
100
AcDbCircle
 10
49.09999999999979
 20
150.6485950000001
 30
0.0
 40
19.0
100
AcDbArc
 50
324.2727539999998
 51
35.37654000000004
  0
ARC
  5
50CF
330
A
100
AcDbEntity
  8
0
  6
Continuous
 62
     7
100
AcDbCircle
 10
64.0
 20
138.1485950000001
 30
0.0
 40
1.5
100
AcDbArc
 50
30.49180600000117
 51
69.54069699999824
  0
LINE
  5
50D0
330
A
100
AcDbEntity
  8
0
  6
Continuous
 62
     7
100
AcDbLine
 10
64.5919329999997
 20
161.6485950000001
 30
0.0
 11
65.78133200000002
 21
161.6485950000001
 31
0.0
  0
LINE
  5
50D1
330
A
100
AcDbEntity
  8
0
  6
Continuous
 62
     7
100
AcDbLine
 10
64.0
 20
139.6485950000001
 30
0.0
 11
61.97249899999997
 21
139.6485950000001
 31
0.0
  0
ARC
  5
50D2
330
A
100
AcDbEntity
  8
0
  6
Continuous
 62
     7
100
AcDbCircle
 10
64.0
 20
138.1485950000001
 30
0.0
 40
1.5
100
AcDbArc
 50
69.54069699999824
 51
90.0
  0
LINE
  5
50D3
330
A
100
AcDbEntity
  8
0
  6
Continuous
 62
     7
100
AcDbLine
 10
62.12249899999983
 20
161.6485950000001
 30
0.0
 11
64.5919329999997
 21
161.6485950000001
 31
0.0
  0
ARC
  5
50D4
330
A
100
AcDbEntity
  8
0
  6
Continuous
 62
     7
100
AcDbCircle
 10
51.80365699999993
 20
154.0043330000001
 30
0.0
 40
0.1
100
AcDbArc
 50
206.7426590000006
 51
276.7426590000005
  0
LINE
  5
50D5
330
A
100
AcDbEntity
  8
0
  6
Continuous
 62
     7
100
AcDbLine
 10
51.81539799999985
 20
153.9050250000001
 30
0.0
 11
51.85201399999994
 21
153.9093540000001
 31
0.0
  0
ARC
  5
50D6
330
A
100
AcDbEntity
  8
0
  6
Continuous
 62
     7
100
AcDbCircle
 10
50.0
 20
150.6485950000001
 30
0.0
 40
3.75
100
AcDbArc
 50
43.08060299999936
 51
60.40471500000059
  0
LINE
  5
50D7
330
A
100
AcDbEntity
  8
0
  6
Continuous
 62
     7
100
AcDbLine
 10
52.73897599999997
 20
153.2099450000001
 30
0.0
 11
52.74330499999996
 21
153.1733290000001
 31
0.0
  0
ARC
  5
50D8
330
A
100
AcDbEntity
  8
0
  6
Continuous
 62
     7
100
AcDbCircle
 10
52.8426129999998
 20
153.1850700000001
 30
0.0
 40
0.1
100
AcDbArc
 50
186.7426590000002
 51
256.7426590000015
  0
LINE
  5
50D9
330
A
100
AcDbEntity
  8
0
  6
Continuous
 62
     7
100
AcDbLine
 10
52.81968099999994
 20
153.0877350000001
 30
0.0
 11
52.85556899999983
 21
153.0792800000001
 31
0.0
  0
ARC
  5
50DA
330
A
100
AcDbEntity
  8
0
  6
Continuous
 62
     7
100
AcDbCircle
 10
50.0
 20
150.6485950000001
 30
0.0
 40
3.75
100
AcDbArc
 50
23.08060300000114
 51
40.40471500000056
  0
LINE
  5
50DB
330
A
100
AcDbEntity
  8
0
  6
Continuous
 62
     7
100
AcDbLine
 10
53.44982800000003
 20
152.1186920000001
 30
0.0
 11
53.44137299999999
 21
152.0828040000001
 31
0.0
  0
ARC
  5
50DC
330
A
100
AcDbEntity
  8
0
  6
Continuous
 62
     7
100
AcDbCircle
 10
53.53870799999993
 20
152.0598710000001
 30
0.0
 40
0.1
100
AcDbArc
 50
166.7426589999995
 51
236.7426590000012
  0
LINE
  5
50DD
330
A
100
AcDbEntity
  8
0
  6
Continuous
 62
     7
100
AcDbLine
 10
53.4838679999998
 20
151.9762500000001
 30
0.0
 11
53.51469999999983
 21
151.9560300000001
 31
0.0
  0
ARC
  5
50DE
330
A
100
AcDbEntity
  8
0
  6
Continuous
 62
     7
100
AcDbCircle
 10
50.0
 20
150.6485950000001
 30
0.0
 40
3.75
100
AcDbArc
 50
3.080602999999661
 51
20.40471499999944
  0
LINE
  5
50DF
330
A
100
AcDbEntity
  8
0
  6
Continuous
 62
     7
100
AcDbLine
 10
53.74458099999981
 20
150.8501230000001
 30
0.0
 11
53.72436100000015
 21
150.8192910000001
 31
0.0
  0
ARC
  5
50E0
330
A
100
AcDbEntity
  8
0
  6
Continuous
 62
     7
100
AcDbCircle
 10
53.8079829999998
 20
150.7644509999999
 30
0.0
 40
0.1
100
AcDbArc
 50
146.7426589999989
 51
216.7426590000001
  0
LINE
  5
50E1
330
A
100
AcDbEntity
  8
0
  6
Continuous
 62
     7
100
AcDbLine
 10
53.72784999999999
 20
150.7046290000001
 30
0.0
 11
53.74990599999978
 21
150.6750840000001
 31
0.0
  0
ARC
  5
50E2
330
A
100
AcDbEntity
  8
0
  6
Continuous
 62
     7
100
AcDbCircle
 10
50.0
 20
150.6485950000001
 30
0.0
 40
3.75
100
AcDbArc
 50
343.0806029999993
 51
0.4047149999997015
  0
LINE
  5
50E3
330
A
100
AcDbEntity
  8
0
  6
Continuous
 62
     7
100
AcDbLine
 10
53.58768199999997
 20
149.5572470000001
 30
0.0
 11
53.55813599999999
 21
149.5351910000001
 31
0.0
  0
ARC
  5
50E4
330
A
100
AcDbEntity
  8
0
  6
Continuous
 62
     7
100
AcDbCircle
 10
53.61795799999993
 20
149.4550580000001
 30
0.0
 40
0.1
100
AcDbArc
 50
126.7426589999991
 51
196.7426589999998
  0
LINE
  5
50E5
330
A
100
AcDbEntity
  8
0
  6
Continuous
 62
     7
100
AcDbLine
 10
53.52219699999977
 20
149.4262500000001
 30
0.0
 11
53.53281900000002
 21
149.3909430000001
 31
0.0
  0
ARC
  5
50E6
330
A
100
AcDbEntity
  8
0
  6
Continuous
 62
     7
100
AcDbCircle
 10
50.0
 20
150.6485950000001
 30
0.0
 40
3.75
100
AcDbArc
 50
323.0806029999988
 51
340.4047150000005
  0
LINE
  5
50E7
330
A
100
AcDbEntity
  8
0
  6
Continuous
 62
     7
100
AcDbLine
 10
52.9980549999998
 20
148.3960040000001
 30
0.0
 11
52.96274699999981
 21
148.3853830000001
 31
0.0
  0
ARC
  5
50E8
330
A
100
AcDbEntity
  8
0
  6
Continuous
 62
     7
100
AcDbCircle
 10
52.99155499999983
 20
148.2896220000001
 30
0.0
 40
0.1
100
AcDbArc
 50
106.7426589999993
 51
176.7426589999997
  0
LINE
  5
50E9
330
A
100
AcDbEntity
  8
0
  6
Continuous
 62
     7
100
AcDbLine
 10
52.89171599999997
 20
148.2953040000001
 30
0.0
 11
52.88962099999981
 21
148.2584930000002
 31
0.0
  0
ARC
  5
50EA
330
A
100
AcDbEntity
  8
0
  6
Continuous
 62
     7
100
AcDbCircle
 10
50.0
 20
150.6485950000001
 30
0.0
 40
3.75
100
AcDbArc
 50
303.0806029999997
 51
320.4047150000009
  0
LINE
  5
50EB
330
A
100
AcDbEntity
  8
0
  6
Continuous
 62
     7
100
AcDbLine
 10
52.04681900000003
 20
147.506457
 30
0.0
 11
52.01000799999997
 21
147.5085520000001
 31
0.0
  0
ARC
  5
50EC
330
A
100
AcDbEntity
  8
0
  6
Continuous
 62
     7
100
AcDbCircle
 10
52.00432599999976
 20
147.4087140000001
 30
0.0
 40
0.1
100
AcDbArc
 50
86.74265899999971
 51
156.7426589999993
  0
LINE
  5
50ED
330
A
100
AcDbEntity
  8
0
  6
Continuous
 62
     7
100
AcDbLine
 10
51.9124519999998
 20
147.4482000000001
 30
0.0
 11
51.89789299999984
 21
147.4143250000001
 31
0.0
  0
ARC
  5
50EE
330
A
100
AcDbEntity
  8
0
  6
Continuous
 62
     7
100
AcDbCircle
 10
50.0
 20
150.6485950000001
 30
0.0
 40
3.75
100
AcDbArc
 50
283.0806029999989
 51
300.404715
  0
LINE
  5
50EF
330
A
100
AcDbEntity
  8
0
  6
Continuous
 62
     7
100
AcDbLine
 10
50.84870599999977
 20
146.9958980000001
 30
0.0
 11
50.8148309999998
 21
147.0104570000001
 31
0.0
  0
ARC
  5
50F0
330
A
100
AcDbEntity
  8
0
  6
Continuous
 62
     7
100
AcDbCircle
 10
50.77534500000002
 20
146.9185830000001
 30
0.0
 40
0.1
100
AcDbArc
 50
66.74265900000086
 51
136.7426590000009
  0
LINE
  5
50F1
330
A
100
AcDbEntity
  8
0
  6
Continuous
 62
     7
100
AcDbLine
 10
50.70251699999983
 20
146.9871100000001
 30
0.0
 11
50.67724999999985
 21
146.9602580000001
 31
0.0
  0
ARC
  5
50F2
330
A
100
AcDbEntity
  8
0
  6
Continuous
 62
     7
100
AcDbCircle
 10
50.0
 20
150.6485950000001
 30
0.0
 40
3.75
100
AcDbArc
 50
263.0806029999997
 51
280.4047149999988
  0
LINE
  5
50F3
330
A
100
AcDbEntity
  8
0
  6
Continuous
 62
     7
100
AcDbLine
 10
49.54822699999965
 20
146.9259080000001
 30
0.0
 11
49.52137399999992
 21
146.9511740000001
 31
0.0
  0
ARC
  5
50F4
330
A
100
AcDbEntity
  8
0
  6
Continuous
 62
     7
100
AcDbCircle
 10
49.45284699999979
 20
146.8783460000001
 30
0.0
 40
0.1
100
AcDbArc
 50
46.74265900000097
 51
116.7426590000006
  0
LINE
  5
50F5
330
A
100
AcDbEntity
  8
0
  6
Continuous
 62
     7
100
AcDbLine
 10
49.40784799999994
 20
146.9676500000001
 30
0.0
 11
49.37492099999997
 21
146.9510590000001
 31
0.0
  0
ARC
  5
50F6
330
A
100
AcDbEntity
  8
0
  6
Continuous
 62
     7
100
AcDbCircle
 10
50.0
 20
150.6485950000001
 30
0.0
 40
3.75
100
AcDbArc
 50
243.0806030000013
 51
260.4047150000007
  0
LINE
  5
50F7
330
A
100
AcDbEntity
  8
0
  6
Continuous
 62
     7
100
AcDbLine
 10
48.30223799999998
 20
147.3049290000001
 30
0.0
 11
48.28564699999981
 21
147.3378560000001
 31
0.0
  0
ARC
  5
50F8
330
A
100
AcDbEntity
  8
0
  6
Continuous
 62
     7
100
AcDbCircle
 10
48.19634299999996
 20
147.292857
 30
0.0
 40
0.1
100
AcDbArc
 50
26.74265900000059
 51
96.74265900000047
  0
LINE
  5
50F9
330
A
100
AcDbEntity
  8
0
  6
Continuous
 62
     7
100
AcDbLine
 10
48.18460199999981
 20
147.3921660000002
 30
0.0
 11
48.14798599999983
 21
147.3878370000001
 31
0.0
  0
ARC
  5
50FA
330
A
100
AcDbEntity
  8
0
  6
Continuous
 62
     7
100
AcDbCircle
 10
50.0
 20
150.6485950000001
 30
0.0
 40
3.75
100
AcDbArc
 50
223.0806029999993
 51
240.4047150000006
  0
LINE
  5
50FB
330
A
100
AcDbEntity
  8
0
  6
Continuous
 62
     7
100
AcDbLine
 10
47.26102400000002
 20
148.0872460000001
 30
0.0
 11
47.2566949999998
 21
148.1238610000001
 31
0.0
  0
ARC
  5
50FC
330
A
100
AcDbEntity
  8
0
  6
Continuous
 62
     7
100
AcDbCircle
 10
47.15738699999985
 20
148.1121200000001
 30
0.0
 40
0.1
100
AcDbArc
 50
6.742659000000285
 51
76.7426590000015
  0
LINE
  5
50FD
330
A
100
AcDbEntity
  8
0
  6
Continuous
 62
     7
100
AcDbLine
 10
47.18031899999982
 20
148.2094550000001
 30
0.0
 11
47.14443099999994
 21
148.2179110000001
 31
0.0
  0
ARC
  5
50FE
330
A
100
AcDbEntity
  8
0
  6
Continuous
 62
     7
100
AcDbCircle
 10
50.0
 20
150.6485950000001
 30
0.0
 40
3.75
100
AcDbArc
 50
203.0806030000011
 51
220.4047150000005
  0
LINE
  5
50FF
330
A
100
AcDbEntity
  8
0
  6
Continuous
 62
     7
100
AcDbLine
 10
46.55017099999997
 20
149.1784990000001
 30
0.0
 11
46.55862699999977
 21
149.2143870000001
 31
0.0
  0
ARC
  5
5100
330
A
100
AcDbEntity
  8
0
  6
Continuous
 62
     7
100
AcDbCircle
 10
46.46129199999996
 20
149.2373190000001
 30
0.0
 40
0.1
100
AcDbArc
 50
346.7426589999995
 51
56.74265900000118
  0
LINE
  5
5101
330
A
100
AcDbEntity
  8
0
  6
Continuous
 62
     7
100
AcDbLine
 10
46.51613199999997
 20
149.3209410000001
 30
0.0
 11
46.48529999999993
 21
149.3411610000001
 31
0.0
  0
ARC
  5
5102
330
A
100
AcDbEntity
  8
0
  6
Continuous
 62
     7
100
AcDbCircle
 10
50.0
 20
150.6485950000001
 30
0.0
 40
3.75
100
AcDbArc
 50
183.0806029999997
 51
200.4047149999995
  0
LINE
  5
5103
330
A
100
AcDbEntity
  8
0
  6
Continuous
 62
     7
100
AcDbLine
 10
46.25541899999996
 20
150.4470670000001
 30
0.0
 11
46.27563899999995
 21
150.4778990000001
 31
0.0
  0
ARC
  5
5104
330
A
100
AcDbEntity
  8
0
  6
Continuous
 62
     7
100
AcDbCircle
 10
46.19201699999996
 20
150.5327390000001
 30
0.0
 40
0.1
100
AcDbArc
 50
326.7426589999989
 51
36.74265900000009
  0
LINE
  5
5105
330
A
100
AcDbEntity
  8
0
  6
Continuous
 62
     7
100
AcDbLine
 10
46.27215000000001
 20
150.5925610000001
 30
0.0
 11
46.25009399999998
 21
150.6221070000001
 31
0.0
  0
ARC
  5
5106
330
A
100
AcDbEntity
  8
0
  6
Continuous
 62
     7
100
AcDbCircle
 10
50.0
 20
150.6485950000001
 30
0.0
 40
3.75
100
AcDbArc
 50
163.0806029999992
 51
180.4047149999997
  0
LINE
  5
5107
330
A
100
AcDbEntity
  8
0
  6
Continuous
 62
     7
100
AcDbLine
 10
46.4123179999998
 20
151.7399430000001
 30
0.0
 11
46.44186399999978
 21
151.7619999999999
 31
0.0
  0
ARC
  5
5108
330
A
100
AcDbEntity
  8
0
  6
Continuous
 62
     7
100
AcDbCircle
 10
46.38204199999984
 20
151.8421330000001
 30
0.0
 40
0.1
100
AcDbArc
 50
306.7426589999991
 51
16.74265899999983
  0
LINE
  5
5109
330
A
100
AcDbEntity
  8
0
  6
Continuous
 62
     7
100
AcDbLine
 10
46.47780199999977
 20
151.8709400000001
 30
0.0
 11
46.46718099999975
 21
151.9062480000001
 31
0.0
  0
ARC
  5
510A
330
A
100
AcDbEntity
  8
0
  6
Continuous
 62
     7
100
AcDbCircle
 10
50.0
 20
150.6485950000001
 30
0.0
 40
3.75
100
AcDbArc
 50
143.0806029999987
 51
160.4047150000005
  0
LINE
  5
510B
330
A
100
AcDbEntity
  8
0
  6
Continuous
 62
     7
100
AcDbLine
 10
47.00194499999997
 20
152.9011860000001
 30
0.0
 11
47.03725299999996
 21
152.9118080000001
 31
0.0
  0
ARC
  5
510C
330
A
100
AcDbEntity
  8
0
  6
Continuous
 62
     7
100
AcDbCircle
 10
47.00844499999982
 20
153.0075680000001
 30
0.0
 40
0.1
100
AcDbArc
 50
286.7426589999994
 51
356.7426589999997
  0
LINE
  5
510D
330
A
100
AcDbEntity
  8
0
  6
Continuous
 62
     7
100
AcDbLine
 10
47.1082839999998
 20
153.0018860000001
 30
0.0
 11
47.11037899999996
 21
153.0386970000001
 31
0.0
  0
ARC
  5
510E
330
A
100
AcDbEntity
  8
0
  6
Continuous
 62
     7
100
AcDbCircle
 10
50.0
 20
150.6485950000001
 30
0.0
 40
3.75
100
AcDbArc
 50
123.0806029999996
 51
140.4047150000009
  0
LINE
  5
510F
330
A
100
AcDbEntity
  8
0
  6
Continuous
 62
     7
100
AcDbLine
 10
47.95318099999986
 20
153.7907340000001
 30
0.0
 11
47.9899919999998
 21
153.7886390000001
 31
0.0
  0
ARC
  5
5110
330
A
100
AcDbEntity
  8
0
  6
Continuous
 62
     7
100
AcDbCircle
 10
47.995674
 20
153.8884770000001
 30
0.0
 40
0.1
100
AcDbArc
 50
266.7426589999998
 51
336.7426589999994
  0
LINE
  5
5111
330
A
100
AcDbEntity
  8
0
  6
Continuous
 62
     7
100
AcDbLine
 10
48.08754799999997
 20
153.8489910000001
 30
0.0
 11
48.10210699999993
 21
153.8828650000001
 31
0.0
  0
ARC
  5
5112
330
A
100
AcDbEntity
  8
0
  6
Continuous
 62
     7
100
AcDbCircle
 10
50.0
 20
150.6485950000001
 30
0.0
 40
3.75
100
AcDbArc
 50
103.0806029999988
 51
120.4047149999999
  0
LINE
  5
5113
330
A
100
AcDbEntity
  8
0
  6
Continuous
 62
     7
100
AcDbLine
 10
49.15129400000001
 20
154.3012930000001
 30
0.0
 11
49.18516899999997
 21
154.286734
 31
0.0
  0
ARC
  5
5114
330
A
100
AcDbEntity
  8
0
  6
Continuous
 62
     7
100
AcDbCircle
 10
49.22465499999998
 20
154.3786080000001
 30
0.0
 40
0.1
100
AcDbArc
 50
246.7426590000008
 51
316.742659000001
  0
LINE
  5
5115
330
A
100
AcDbEntity
  8
0
  6
Continuous
 62
     7
100
AcDbLine
 10
49.29748299999994
 20
154.3100800000001
 30
0.0
 11
49.32274999999993
 21
154.3369330000001
 31
0.0
  0
ARC
  5
5116
330
A
100
AcDbEntity
  8
0
  6
Continuous
 62
     7
100
AcDbCircle
 10
50.0
 20
150.6485950000001
 30
0.0
 40
3.75
100
AcDbArc
 50
83.08060299999972
 51
100.4047149999987
  0
LINE
  5
5117
330
A
100
AcDbEntity
  8
0
  6
Continuous
 62
     7
100
AcDbLine
 10
50.451773
 20
154.3712830000001
 30
0.0
 11
50.47862599999996
 21
154.3460160000001
 31
0.0
  0
ARC
  5
5118
330
A
100
AcDbEntity
  8
0
  6
Continuous
 62
     7
100
AcDbCircle
 10
50.54715299999975
 20
154.4188440000001
 30
0.0
 40
0.1
100
AcDbArc
 50
226.742659000001
 51
296.7426590000006
  0
LINE
  5
5119
330
A
100
AcDbEntity
  8
0
  6
Continuous
 62
     7
100
AcDbLine
 10
50.59215199999982
 20
154.3295410000001
 30
0.0
 11
50.62507800000003
 21
154.3461320000001
 31
0.0
  0
ARC
  5
511A
330
A
100
AcDbEntity
  8
0
  6
Continuous
 62
     7
100
AcDbCircle
 10
50.0
 20
150.6485950000001
 30
0.0
 40
3.75
100
AcDbArc
 50
63.08060300000135
 51
80.40471500000075
  0
LINE
  5
511B
330
A
100
AcDbEntity
  8
0
  6
Continuous
 62
     7
100
AcDbLine
 10
51.69776200000001
 20
153.9922610000001
 30
0.0
 11
51.71435299999984
 21
153.9593350000001
 31
0.0
  0
LINE
  5
511C
330
A
100
AcDbEntity
  8
0
  6
Continuous
 62
     7
100
AcDbLine
 10
49.32274999999993
 20
154.3369330000001
 30
0.0
 11
49.61644199999978
 21
154.6490570000001
 31
0.0
  0
LINE
  5
511D
330
A
100
AcDbEntity
  8
0
  6
Continuous
 62
     7
100
AcDbLine
 10
50.16025099999978
 20
154.6455900000001
 30
0.0
 11
50.451773
 21
154.3712830000001
 31
0.0
  0
LINE
  5
511E
330
A
100
AcDbEntity
  8
0
  6
Continuous
 62
     7
100
AcDbLine
 10
50.62507800000003
 20
154.3461320000001
 30
0.0
 11
51.11574800000005
 21
154.5933710000001
 31
0.0
  0
LINE
  5
511F
330
A
100
AcDbEntity
  8
0
  6
Continuous
 62
     7
100
AcDbLine
 10
51.45011799999998
 20
154.4837350000001
 30
0.0
 11
51.69776200000001
 21
153.9922610000001
 31
0.0
  0
LINE
  5
5120
330
A
100
AcDbEntity
  8
0
  6
Continuous
 62
     7
100
AcDbLine
 10
48.10210699999993
 20
153.8828650000001
 30
0.0
 11
48.31948299999999
 21
154.3886430000001
 31
0.0
  0
LINE
  5
5121
330
A
100
AcDbEntity
  8
0
  6
Continuous
 62
     7
100
AcDbLine
 10
48.64689199999998
 20
154.5180770000001
 30
0.0
 11
49.15129400000001
 21
154.3012930000001
 31
0.0
  0
LINE
  5
5122
330
A
100
AcDbEntity
  8
0
  6
Continuous
 62
     7
100
AcDbLine
 10
51.85201399999994
 20
153.9093540000001
 30
0.0
 11
52.3987179999998
 21
153.9739890000001
 31
0.0
  0
LINE
  5
5123
330
A
100
AcDbEntity
  8
0
  6
Continuous
 62
     7
100
AcDbLine
 10
52.67451599999981
 20
153.7551620000001
 30
0.0
 11
52.73897599999997
 21
153.2099450000001
 31
0.0
  0
LINE
  5
5124
330
A
100
AcDbEntity
  8
0
  6
Continuous
 62
     7
100
AcDbLine
 10
47.11037899999996
 20
153.0386970000001
 30
0.0
 11
47.14159800000015
 21
153.5872490000001
 31
0.0
  0
LINE
  5
5125
330
A
100
AcDbEntity
  8
0
  6
Continuous
 62
     7
100
AcDbLine
 10
47.40372999999954
 20
153.8220040000001
 30
0.0
 11
47.95318099999986
 21
153.7907340000001
 31
0.0
  0
LINE
  5
5126
330
A
100
AcDbEntity
  8
0
  6
Continuous
 62
     7
100
AcDbLine
 10
53.57584499999984
 20
152.6535570000001
 30
0.0
 11
53.44982800000003
 21
152.1186920000001
 31
0.0
  0
LINE
  5
5127
330
A
100
AcDbEntity
  8
0
  6
Continuous
 62
     7
100
AcDbLine
 10
52.85556899999983
 20
153.0792800000001
 30
0.0
 11
53.38997499999994
 21
152.9533720000001
 31
0.0
  0
LINE
  5
5128
330
A
100
AcDbEntity
  8
0
  6
Continuous
 62
     7
100
AcDbLine
 10
46.46718099999975
 20
151.9062480000001
 30
0.0
 11
46.30897199999981
 21
152.4321630000001
 31
0.0
  0
LINE
  5
5129
330
A
100
AcDbEntity
  8
0
  6
Continuous
 62
     7
100
AcDbLine
 10
46.47557799999981
 20
152.7428410000001
 30
0.0
 11
47.00194499999997
 21
152.9011860000001
 31
0.0
  0
LINE
  5
512A
330
A
100
AcDbEntity
  8
0
  6
Continuous
 62
     7
100
AcDbLine
 10
54.04638799999998
 20
151.3103260000001
 30
0.0
 11
53.74458099999981
 21
150.8501230000001
 31
0.0
  0
LINE
  5
512B
330
A
100
AcDbEntity
  8
0
  6
Continuous
 62
     7
100
AcDbLine
 10
53.51469999999983
 20
151.9560300000001
 30
0.0
 11
53.97414900000001
 21
151.6547170000001
 31
0.0
  0
LINE
  5
512C
330
A
100
AcDbEntity
  8
0
  6
Continuous
 62
     7
100
AcDbLine
 10
46.25009399999998
 20
150.6221070000001
 30
0.0
 11
45.92076499999996
 21
151.0632490000002
 31
0.0
  0
LINE
  5
512D
330
A
100
AcDbEntity
  8
0
  6
Continuous
 62
     7
100
AcDbLine
 10
45.97237599999982
 20
151.4115109999999
 30
0.0
 11
46.4123179999998
 21
151.7399430000001
 31
0.0
  0
LINE
  5
512E
330
A
100
AcDbEntity
  8
0
  6
Continuous
 62
     7
100
AcDbLine
 10
54.02762399999994
 20
149.8856800000001
 30
0.0
 11
53.58768199999997
 21
149.5572470000001
 31
0.0
  0
LINE
  5
512F
330
A
100
AcDbEntity
  8
0
  6
Continuous
 62
     7
100
AcDbLine
 10
53.74990599999978
 20
150.6750840000001
 30
0.0
 11
54.07923499999981
 21
150.2339410000001
 31
0.0
  0
LINE
  5
5130
330
A
100
AcDbEntity
  8
0
  6
Continuous
 62
     7
100
AcDbLine
 10
46.48529999999993
 20
149.3411610000001
 30
0.0
 11
46.02585099999998
 21
149.6424730000001
 31
0.0
  0
LINE
  5
5131
330
A
100
AcDbEntity
  8
0
  6
Continuous
 62
     7
100
AcDbLine
 10
45.95361200000001
 20
149.9868640000001
 30
0.0
 11
46.25541899999996
 21
150.4470670000001
 31
0.0
  0
LINE
  5
5132
330
A
100
AcDbEntity
  8
0
  6
Continuous
 62
     7
100
AcDbLine
 10
53.52427099999999
 20
148.5543040000001
 30
0.0
 11
52.9980549999998
 21
148.3960040000001
 31
0.0
  0
LINE
  5
5133
330
A
100
AcDbEntity
  8
0
  6
Continuous
 62
     7
100
AcDbLine
 10
53.53281900000002
 20
149.3909430000001
 30
0.0
 11
53.69098199999996
 21
148.8651790000001
 31
0.0
  0
LINE
  5
5134
330
A
100
AcDbEntity
  8
0
  6
Continuous
 62
     7
100
AcDbLine
 10
47.14443099999994
 20
148.2179110000001
 30
0.0
 11
46.61002499999983
 21
148.3438190000001
 31
0.0
  0
LINE
  5
5135
330
A
100
AcDbEntity
  8
0
  6
Continuous
 62
     7
100
AcDbLine
 10
46.42415499999993
 20
148.6436330000001
 30
0.0
 11
46.55017099999997
 21
149.1784990000001
 31
0.0
  0
LINE
  5
5136
330
A
100
AcDbEntity
  8
0
  6
Continuous
 62
     7
100
AcDbLine
 10
52.88962099999981
 20
148.2584930000002
 30
0.0
 11
52.85840199999984
 21
147.7099420000001
 31
0.0
  0
LINE
  5
5137
330
A
100
AcDbEntity
  8
0
  6
Continuous
 62
     7
100
AcDbLine
 10
52.59627
 20
147.4751860000001
 30
0.0
 11
52.04681900000003
 21
147.506457
 31
0.0
  0
LINE
  5
5138
330
A
100
AcDbEntity
  8
0
  6
Continuous
 62
     7
100
AcDbLine
 10
48.14798599999983
 20
147.3878370000001
 30
0.0
 11
47.60128199999985
 21
147.3232010000001
 31
0.0
  0
LINE
  5
5139
330
A
100
AcDbEntity
  8
0
  6
Continuous
 62
     7
100
AcDbLine
 10
47.32548399999996
 20
147.542028
 30
0.0
 11
47.26102400000002
 21
148.0872460000001
 31
0.0
  0
LINE
  5
513A
330
A
100
AcDbEntity
  8
0
  6
Continuous
 62
     7
100
AcDbLine
 10
51.89789299999984
 20
147.4143250000001
 30
0.0
 11
51.68051699999978
 21
146.9085470000001
 31
0.0
  0
LINE
  5
513B
330
A
100
AcDbEntity
  8
0
  6
Continuous
 62
     7
100
AcDbLine
 10
51.35310799999979
 20
146.7791130000001
 30
0.0
 11
50.84870599999977
 21
146.9958980000001
 31
0.0
  0
LINE
  5
513C
330
A
100
AcDbEntity
  8
0
  6
Continuous
 62
     7
100
AcDbLine
 10
49.37492099999997
 20
146.9510590000001
 30
0.0
 11
48.88425199999995
 21
146.7038200000001
 31
0.0
  0
LINE
  5
513D
330
A
100
AcDbEntity
  8
0
  6
Continuous
 62
     7
100
AcDbLine
 10
48.54988200000002
 20
146.8134550000001
 30
0.0
 11
48.30223799999998
 21
147.3049290000001
 31
0.0
  0
LINE
  5
513E
330
A
100
AcDbEntity
  8
0
  6
Continuous
 62
     7
100
AcDbLine
 10
50.67724999999985
 20
146.9602580000001
 30
0.0
 11
50.38355799999999
 21
146.6481340000001
 31
0.0
  0
LINE
  5
513F
330
A
100
AcDbEntity
  8
0
  6
Continuous
 62
     7
100
AcDbLine
 10
49.83974899999975
 20
146.6516000000001
 30
0.0
 11
49.54822699999965
 21
146.9259080000001
 31
0.0
  0
ARC
  5
5140
330
A
100
AcDbEntity
  8
0
  6
Continuous
 62
     7
100
AcDbCircle
 10
50.0
 20
150.6485950000001
 30
0.0
 40
4.0
100
AcDbArc
 50
55.78463700000084
 51
67.70068099999939
  0
ARC
  5
5141
330
A
100
AcDbEntity
  8
0
  6
Continuous
 62
     7
100
AcDbCircle
 10
50.0
 20
150.6485950000001
 30
0.0
 40
4.0
100
AcDbArc
 50
75.78463699999968
 51
87.70068100000157
  0
ARC
  5
5142
330
A
100
AcDbEntity
  8
0
  6
Continuous
 62
     7
100
AcDbCircle
 10
50.0
 20
150.6485950000001
 30
0.0
 40
4.0
100
AcDbArc
 50
95.78463700000082
 51
107.7006809999998
  0
ARC
  5
5143
330
A
100
AcDbEntity
  8
0
  6
Continuous
 62
     7
100
AcDbCircle
 10
50.0
 20
150.6485950000001
 30
0.0
 40
4.0
100
AcDbArc
 50
115.7846370000003
 51
127.7006809999995
  0
ARC
  5
5144
330
A
100
AcDbEntity
  8
0
  6
Continuous
 62
     7
100
AcDbCircle
 10
50.0
 20
150.6485950000001
 30
0.0
 40
4.0
100
AcDbArc
 50
135.7846369999995
 51
147.7006809999993
  0
ARC
  5
5145
330
A
100
AcDbEntity
  8
0
  6
Continuous
 62
     7
100
AcDbCircle
 10
50.0
 20
150.6485950000001
 30
0.0
 40
4.0
100
AcDbArc
 50
155.7846370000007
 51
167.7006810000005
  0
ARC
  5
5146
330
A
100
AcDbEntity
  8
0
  6
Continuous
 62
     7
100
AcDbCircle
 10
50.0
 20
150.6485950000001
 30
0.0
 40
4.0
100
AcDbArc
 50
175.7846369999999
 51
187.7006809999995
  0
ARC
  5
5147
330
A
100
AcDbEntity
  8
0
  6
Continuous
 62
     7
100
AcDbCircle
 10
50.0
 20
150.6485950000001
 30
0.0
 40
4.0
100
AcDbArc
 50
195.7846369999994
 51
207.7006809999987
  0
ARC
  5
5148
330
A
100
AcDbEntity
  8
0
  6
Continuous
 62
     7
100
AcDbCircle
 10
50.0
 20
150.6485950000001
 30
0.0
 40
4.0
100
AcDbArc
 50
215.7846369999997
 51
227.7006809999993
  0
ARC
  5
5149
330
A
100
AcDbEntity
  8
0
  6
Continuous
 62
     7
100
AcDbCircle
 10
50.0
 20
150.6485950000001
 30
0.0
 40
4.0
100
AcDbArc
 50
235.7846370000009
 51
247.7006809999994
  0
ARC
  5
514A
330
A
100
AcDbEntity
  8
0
  6
Continuous
 62
     7
100
AcDbCircle
 10
50.0
 20
150.6485950000001
 30
0.0
 40
4.0
100
AcDbArc
 50
255.7846369999996
 51
267.7006810000015
  0
ARC
  5
514B
330
A
100
AcDbEntity
  8
0
  6
Continuous
 62
     7
100
AcDbCircle
 10
50.0
 20
150.6485950000001
 30
0.0
 40
4.0
100
AcDbArc
 50
275.7846370000008
 51
287.7006809999999
  0
ARC
  5
514C
330
A
100
AcDbEntity
  8
0
  6
Continuous
 62
     7
100
AcDbCircle
 10
50.0
 20
150.6485950000001
 30
0.0
 40
4.0
100
AcDbArc
 50
295.7846370000003
 51
307.7006809999996
  0
ARC
  5
514D
330
A
100
AcDbEntity
  8
0
  6
Continuous
 62
     7
100
AcDbCircle
 10
50.0
 20
150.6485950000001
 30
0.0
 40
4.0
100
AcDbArc
 50
315.7846369999995
 51
327.7006809999993
  0
ARC
  5
514E
330
A
100
AcDbEntity
  8
0
  6
Continuous
 62
     7
100
AcDbCircle
 10
50.0
 20
150.6485950000001
 30
0.0
 40
4.0
100
AcDbArc
 50
335.7846370000006
 51
347.7006810000006
  0
ARC
  5
514F
330
A
100
AcDbEntity
  8
0
  6
Continuous
 62
     7
100
AcDbCircle
 10
50.0
 20
150.6485950000001
 30
0.0
 40
4.0
100
AcDbArc
 50
355.7846369999999
 51
7.700680999999513
  0
ARC
  5
5150
330
A
100
AcDbEntity
  8
0
  6
Continuous
 62
     7
100
AcDbCircle
 10
50.0
 20
150.6485950000001
 30
0.0
 40
4.0
100
AcDbArc
 50
15.7846369999994
 51
27.70068099999877
  0
ARC
  5
5151
330
A
100
AcDbEntity
  8
0
  6
Continuous
 62
     7
100
AcDbCircle
 10
50.0
 20
150.6485950000001
 30
0.0
 40
4.0
100
AcDbArc
 50
35.78463699999974
 51
47.70068099999935
  0
LINE
  5
5152
330
A
100
AcDbEntity
  8
0
  6
Continuous
 62
     7
100
AcDbLine
 10
8.649999999999977
 20
146.6485950000001
 30
0.0
 11
8.649999999999977
 21
154.6485950000001
 31
0.0
  0
LINE
  5
5153
330
A
100
AcDbEntity
  8
0
  6
Continuous
 62
     9
100
AcDbLine
 10
1.649999999999977
 20
146.6485950000001
 30
0.0
 11
1.649999999999977
 21
154.6485950000001
 31
0.0
  0
LINE
  5
5154
330
A
100
AcDbEntity
  8
0
  6
Continuous
 62
     7
100
AcDbLine
 10
-5.350000000000193
 20
146.6485950000001
 30
0.0
 11
-5.350000000000193
 21
154.6485950000001
 31
0.0
  0
LINE
  5
5155
330
A
100
AcDbEntity
  8
0
  6
Continuous
 62
     9
100
AcDbLine
 10
-12.50000000000017
 20
162.1485950000001
 30
0.0
 11
-17.00000000000017
 21
162.1485950000001
 31
0.0
  0
ARC
  5
5156
330
A
100
AcDbEntity
  8
0
  6
Continuous
 62
     7
100
AcDbCircle
 10
-16.00000000000006
 20
162.1485950000001
 30
0.0
 40
1.0
100
AcDbArc
 50
90.0
 51
180.0
  0
LINE
  5
5157
330
A
100
AcDbEntity
  8
0
  6
Continuous
 62
     7
100
AcDbLine
 10
-16.00000000000006
 20
163.1485950000001
 30
0.0
 11
-12.50000000000017
 21
163.1485950000001
 31
0.0
  0
LINE
  5
5158
330
A
100
AcDbEntity
  8
0
  6
Continuous
 62
     9
100
AcDbLine
 10
-12.50000000000017
 20
162.1485950000001
 30
0.0
 11
-12.50000000000017
 21
163.1485950000001
 31
0.0
  0
LINE
  5
5159
330
A
100
AcDbEntity
  8
0
  6
Continuous
 62
     9
100
AcDbLine
 10
59.0
 20
162.1485950000001
 30
0.0
 11
-12.50000000000017
 21
162.1485950000001
 31
0.0
  0
LINE
  5
515A
330
A
100
AcDbEntity
  8
0
  6
Continuous
 62
     7
100
AcDbLine
 10
-12.50000000000017
 20
163.1485950000001
 30
0.0
 11
59.0
 21
163.1485950000001
 31
0.0
  0
LINE
  5
515B
330
A
100
AcDbEntity
  8
0
  6
Continuous
 62
     9
100
AcDbLine
 10
59.0
 20
162.1485950000001
 30
0.0
 11
59.0
 21
163.1485950000001
 31
0.0
  0
ARC
  5
515C
330
A
100
AcDbEntity
  8
0
  6
Continuous
 62
     9
100
AcDbCircle
 10
59.0
 20
159.1485950000001
 30
0.0
 40
3.0
100
AcDbArc
 50
0.0
 51
90.0
  0
ARC
  5
515D
330
A
100
AcDbEntity
  8
0
  6
Continuous
 62
     7
100
AcDbCircle
 10
59.0
 20
159.1485950000001
 30
0.0
 40
4.0
100
AcDbArc
 50
0.0
 51
90.0
  0
LINE
  5
515E
330
A
100
AcDbEntity
  8
0
  6
Continuous
 62
     9
100
AcDbLine
 10
62.0
 20
159.1485950000001
 30
0.0
 11
63.0
 21
159.1485950000001
 31
0.0
  0
LINE
  5
515F
330
A
100
AcDbEntity
  8
0
  6
Continuous
 62
     7
100
AcDbLine
 10
-12.50000000000017
 20
156.1485950000001
 30
0.0
 11
-17.00000000000017
 21
156.1485950000001
 31
0.0
  0
LINE
  5
5160
330
A
100
AcDbEntity
  8
0
  6
Continuous
 62
     7
100
AcDbLine
 10
-17.00000000000017
 20
156.1485950000001
 30
0.0
 11
-17.00000000000017
 21
162.1485950000001
 31
0.0
  0
LINE
  5
5161
330
A
100
AcDbEntity
  8
0
  6
Continuous
 62
     9
100
AcDbLine
 10
-12.50000000000017
 20
162.1485950000001
 30
0.0
 11
-12.50000000000017
 21
156.1485950000001
 31
0.0
  0
LINE
  5
5162
330
A
100
AcDbEntity
  8
0
  6
Continuous
 62
     9
100
AcDbLine
 10
62.0
 20
156.1485950000001
 30
0.0
 11
62.0
 21
159.1485950000001
 31
0.0
  0
LINE
  5
5163
330
A
100
AcDbEntity
  8
0
  6
Continuous
 62
     7
100
AcDbLine
 10
-12.50000000000017
 20
156.1485950000001
 30
0.0
 11
62.0
 21
156.1485950000001
 31
0.0
  0
LINE
  5
5164
330
A
100
AcDbEntity
  8
0
  6
Continuous
 62
     7
100
AcDbLine
 10
63.0
 20
159.1485950000001
 30
0.0
 11
63.0
 21
156.1485950000001
 31
0.0
  0
LINE
  5
5165
330
A
100
AcDbEntity
  8
0
  6
Continuous
 62
     7
100
AcDbLine
 10
63.0
 20
156.1485950000001
 30
0.0
 11
62.0
 21
156.1485950000001
 31
0.0
  0
LINE
  5
5166
330
A
100
AcDbEntity
  8
0
  6
Continuous
 62
     7
100
AcDbLine
 10
60.5
 20
145.6485950000001
 30
0.0
 11
63.0
 21
145.6485950000001
 31
0.0
  0
ARC
  5
5167
330
A
100
AcDbEntity
  8
0
  6
Continuous
 62
     7
100
AcDbCircle
 10
50.0
 20
150.6485950000001
 30
0.0
 40
4.099999999999996
100
AcDbArc
 50
102.6803839999992
 51
257.3196139999994
  0
ARC
  5
5168
330
A
100
AcDbEntity
  8
0
  6
Continuous
 62
     7
100
AcDbCircle
 10
50.0
 20
150.6485950000001
 30
0.0
 40
4.099999999999996
100
AcDbArc
 50
282.6803860000006
 51
77.31961600000083
  0
LINE
  5
5169
330
A
100
AcDbEntity
  8
0
  6
Continuous
 62
     7
100
AcDbLine
 10
8.799999999999783
 20
154.6485950000001
 30
0.0
 11
8.799999999999783
 21
146.6485950000001
 31
0.0
  0
LINE
  5
516A
330
A
100
AcDbEntity
  8
0
  6
Continuous
 62
     7
100
AcDbLine
 10
63.0
 20
145.6485950000001
 30
0.0
 11
63.0
 21
156.1485950000001
 31
0.0
  0
LINE
  5
516B
330
A
100
AcDbEntity
  8
0
  6
Continuous
 62
     7
100
AcDbLine
 10
-16.00000000000006
 20
156.1485950000001
 30
0.0
 11
-15.50000000000006
 21
156.1485950000001
 31
0.0
  0
ARC
  5
516C
330
A
100
AcDbEntity
  8
0
  6
Continuous
 62
     7
100
AcDbCircle
 10
52.00564499999984
 20
139.4277580000001
 30
0.0
 40
6.5
100
AcDbArc
 50
275.130423000001
 51
348.6504460000003
  0
ARC
  5
516D
330
A
100
AcDbEntity
  8
0
  6
Continuous
 62
     7
100
AcDbCircle
 10
52.408049
 20
134.9457860000001
 30
0.0
 40
2.0
100
AcDbArc
 50
251.9364990000006
 51
275.130423000001
  0
ARC
  5
516E
330
A
100
AcDbEntity
  8
0
  6
Continuous
 62
     7
100
AcDbCircle
 10
50.00499999999999
 20
127.577757
 30
0.0
 40
5.75
100
AcDbArc
 50
71.93649900000059
 51
105.722807
  0
ARC
  5
516F
330
A
100
AcDbEntity
  8
0
  6
Continuous
 62
     7
100
AcDbCircle
 10
47.90487699999983
 20
135.0377820000001
 30
0.0
 40
2.0
100
AcDbArc
 50
250.1112599999992
 51
285.722807
  0
ARC
  5
5170
330
A
100
AcDbEntity
  8
0
  6
Continuous
 62
     7
100
AcDbCircle
 10
53.00779799999998
 20
149.1431070000001
 30
0.0
 40
17.0
100
AcDbArc
 50
220.2959590000005
 51
250.1112599999992
  0
ARC
  5
5171
330
A
100
AcDbEntity
  8
0
  6
Continuous
 62
     7
100
AcDbCircle
 10
53.00779799999998
 20
152.1540830000001
 30
0.0
 40
17.0
100
AcDbArc
 50
109.8887400000008
 51
139.7040399999989
  0
ARC
  5
5172
330
A
100
AcDbEntity
  8
0
  6
Continuous
 62
     7
100
AcDbCircle
 10
47.90487699999983
 20
166.2594080000001
 30
0.0
 40
2.0
100
AcDbArc
 50
74.27719300000001
 51
109.8887400000008
  0
ARC
  5
5173
330
A
100
AcDbEntity
  8
0
  6
Continuous
 62
     7
100
AcDbCircle
 10
50.00499999999999
 20
173.7194340000001
 30
0.0
 40
5.75
100
AcDbArc
 50
254.277193
 51
288.0635009999994
  0
ARC
  5
5174
330
A
100
AcDbEntity
  8
0
  6
Continuous
 62
     7
100
AcDbCircle
 10
52.408049
 20
166.3514050000001
 30
0.0
 40
2.0
100
AcDbArc
 50
84.86957699999903
 51
108.0635009999994
  0
ARC
  5
5175
330
A
100
AcDbEntity
  8
0
  6
Continuous
 62
     7
100
AcDbCircle
 10
52.00564499999984
 20
161.8694330000001
 30
0.0
 40
6.5
100
AcDbArc
 50
11.3495550000003
 51
84.86957699999903
  0
ARC
  5
5176
330
A
100
AcDbEntity
  8
0
  6
Continuous
 62
     7
100
AcDbCircle
 10
27.82982899999991
 20
138.5485950000001
 30
0.0
 40
0.5
100
AcDbArc
 50
270.0
 51
306.8698949999996
  0
ARC
  5
5177
330
A
100
AcDbEntity
  8
0
  6
Continuous
 62
     7
100
AcDbCircle
 10
17.8701709999998
 20
138.5485950000001
 30
0.0
 40
0.5
100
AcDbArc
 50
233.1301050000003
 51
270.0
  0
LINE
  5
5178
330
A
100
AcDbEntity
  8
0
  6
Continuous
 62
     7
100
AcDbLine
 10
-12.50000000000017
 20
-14.99999999999988
 30
0.0
 11
-12.65000000000003
 21
-14.99999999999988
 31
0.0
  0
ARC
  5
5179
330
A
100
AcDbEntity
  8
0
  6
Continuous
 62
     7
100
AcDbCircle
 10
-12.65000000000003
 20
-10.49999999999988
 30
0.0
 40
4.5
100
AcDbArc
 50
180.0
 51
270.0
  0
LINE
  5
517A
330
A
100
AcDbEntity
  8
0
  6
Continuous
 62
     7
100
AcDbLine
 10
-17.15000000000003
 20
-10.49999999999988
 30
0.0
 11
-17.15000000000003
 21
80.50000000000011
 31
0.0
  0
ARC
  5
517B
330
A
100
AcDbEntity
  8
0
  6
Continuous
 62
     7
100
AcDbCircle
 10
-12.65000000000003
 20
80.50000000000011
 30
0.0
 40
4.5
100
AcDbArc
 50
90.0
 51
180.0
  0
LINE
  5
517C
330
A
100
AcDbEntity
  8
0
  6
Continuous
 62
     7
100
AcDbLine
 10
-12.65000000000003
 20
85.00000000000012
 30
0.0
 11
-12.50000000000017
 21
85.00000000000012
 31
0.0
  0
LINE
  5
517D
330
A
100
AcDbEntity
  8
0
  6
Continuous
 62
     7
100
AcDbLine
 10
36.02499999999998
 20
40.50000000000011
 30
0.0
 11
36.65379999999982
 21
40.50000000000011
 31
0.0
  0
LINE
  5
517E
330
A
100
AcDbEntity
  8
0
  6
Continuous
 62
     7
100
AcDbLine
 10
36.65379999999982
 20
40.2000000000001
 30
0.0
 11
36.02499999999998
 21
40.2000000000001
 31
0.0
  0
LINE
  5
517F
330
A
100
AcDbEntity
  8
0
  6
Continuous
 62
     7
100
AcDbLine
 10
36.02499999999998
 20
29.80000000000013
 30
0.0
 11
36.65379999999982
 21
29.80000000000013
 31
0.0
  0
LINE
  5
5180
330
A
100
AcDbEntity
  8
0
  6
Continuous
 62
     7
100
AcDbLine
 10
36.65379999999982
 20
29.50000000000012
 30
0.0
 11
36.02499999999998
 21
29.50000000000012
 31
0.0
  0
LINE
  5
5181
330
A
100
AcDbEntity
  8
0
  6
Continuous
 62
     9
100
AcDbLine
 10
58.25
 20
59.4500000000001
 30
0.0
 11
50.0
 21
59.4500000000001
 31
0.0
  0
LINE
  5
5182
330
A
100
AcDbEntity
  8
0
  6
Continuous
 62
     7
100
AcDbLine
 10
57.64999999999997
 20
60.05000000000013
 30
0.0
 11
50.0
 21
60.05000000000013
 31
0.0
  0
LINE
  5
5183
330
A
100
AcDbEntity
  8
0
  6
Continuous
 62
     7
100
AcDbLine
 10
50.0
 20
60.05000000000013
 30
0.0
 11
42.34999999999979
 21
60.05000000000013
 31
0.0
  0
LINE
  5
5184
330
A
100
AcDbEntity
  8
0
  6
Continuous
 62
     9
100
AcDbLine
 10
50.0
 20
59.4500000000001
 30
0.0
 11
41.74999999999999
 21
59.4500000000001
 31
0.0
  0
LINE
  5
5185
330
A
100
AcDbEntity
  8
0
  6
Continuous
 62
     7
100
AcDbLine
 10
54.84999999999979
 20
60.05000000000013
 30
0.0
 11
54.32138199999997
 21
60.05000000000013
 31
0.0
  0
LINE
  5
5186
330
A
100
AcDbEntity
  8
0
  6
Continuous
 62
     7
100
AcDbLine
 10
54.32138199999997
 20
60.05000000000013
 30
0.0
 11
53.339338
 21
60.05000000000013
 31
0.0
  0
LINE
  5
5187
330
A
100
AcDbEntity
  8
0
  6
Continuous
 62
     7
100
AcDbLine
 10
53.339338
 20
60.05000000000013
 30
0.0
 11
50.75870699999995
 21
60.05000000000013
 31
0.0
  0
LINE
  5
5188
330
A
100
AcDbEntity
  8
0
  6
Continuous
 62
     7
100
AcDbLine
 10
49.24129299999993
 20
60.05000000000013
 30
0.0
 11
45.62246100000016
 21
60.05000000000013
 31
0.0
  0
LINE
  5
5189
330
A
100
AcDbEntity
  8
0
  6
Continuous
 62
     7
100
AcDbLine
 10
45.62246100000016
 20
60.05000000000013
 30
0.0
 11
45.14999999999997
 21
60.05000000000013
 31
0.0
  0
LINE
  5
518A
330
A
100
AcDbEntity
  8
0
  6
Continuous
 62
     7
100
AcDbLine
 10
36.02499999999998
 20
42.00000000000011
 30
0.0
 11
36.02499999999998
 21
28.00000000000011
 31
0.0
  0
LINE
  5
518B
330
A
100
AcDbEntity
  8
0
  6
Continuous
 62
     7
100
AcDbLine
 10
45.29999999999984
 20
28.9500000000001
 30
0.0
 11
50.816146
 21
28.9500000000001
 31
0.0
  0
LINE
  5
518C
330
A
100
AcDbEntity
  8
0
  6
Continuous
 62
     7
100
AcDbLine
 10
50.816146
 20
28.9500000000001
 30
0.0
 11
54.69999999999993
 21
28.9500000000001
 31
0.0
  0
LINE
  5
518D
330
A
100
AcDbEntity
  8
0
  6
Continuous
 62
     7
100
AcDbLine
 10
54.69999999999993
 20
41.05000000000012
 30
0.0
 11
48.01187099999982
 21
41.05000000000012
 31
0.0
  0
LINE
  5
518E
330
A
100
AcDbEntity
  8
0
  6
Continuous
 62
     7
100
AcDbLine
 10
48.01187099999982
 20
41.05000000000012
 30
0.0
 11
45.29999999999984
 21
41.05000000000012
 31
0.0
  0
LINE
  5
518F
330
A
100
AcDbEntity
  8
0
  6
Continuous
 62
     7
100
AcDbLine
 10
65.80329299999971
 20
60.00000000000011
 30
0.0
 11
65.80329299999971
 21
85.00000000000012
 31
0.0
  0
LINE
  5
5190
330
A
100
AcDbEntity
  8
0
  6
Continuous
 62
     9
100
AcDbLine
 10
65.79968799999995
 20
60.00000000000011
 30
0.0
 11
65.29255299999999
 21
60.00000000000011
 31
0.0
  0
LINE
  5
5191
330
A
100
AcDbEntity
  8
0
  6
Continuous
 62
     7
100
AcDbLine
 10
65.29255299999999
 20
85.00000000000012
 30
0.0
 11
65.29255299999999
 21
60.00000000000011
 31
0.0
  0
LINE
  5
5192
330
A
100
AcDbEntity
  8
0
  6
Continuous
 62
     7
100
AcDbLine
 10
65.80329299999971
 20
85.00000000000012
 30
0.0
 11
65.29255299999999
 21
85.00000000000012
 31
0.0
  0
ARC
  5
5193
330
A
100
AcDbEntity
  8
0
  6
Continuous
 62
     7
100
AcDbCircle
 10
56.79999999999996
 20
40.90000000000009
 30
0.0
 40
0.2
100
AcDbArc
 50
0.0
 51
90.0
  0
LINE
  5
5194
330
A
100
AcDbEntity
  8
0
  6
Continuous
 62
     7
100
AcDbLine
 10
51.0
 20
41.10000000000013
 30
0.0
 11
56.79999999999996
 21
41.10000000000013
 31
0.0
  0
LINE
  5
5195
330
A
100
AcDbEntity
  8
0
  6
Continuous
 62
     9
100
AcDbLine
 10
51.0
 20
59.00000000000011
 30
0.0
 11
51.0
 21
41.10000000000013
 31
0.0
  0
LINE
  5
5196
330
A
100
AcDbEntity
  8
0
  6
Continuous
 62
     7
100
AcDbLine
 10
51.0
 20
59.00000000000011
 30
0.0
 11
64.5919329999997
 21
59.00000000000011
 31
0.0
  0
LINE
  5
519F
330
A
100
AcDbEntity
  8
0
  6
Continuous
 62
     7
100
AcDbLine
 10
70.5
 20
-14.99999999999988
 30
0.0
 11
65.80329299999971
 21
-14.99999999999988
 31
0.0
  0
LINE
  5
51A0
330
A
100
AcDbEntity
  8
0
  6
Continuous
 62
     7
100
AcDbLine
 10
65.80329299999971
 20
10.00000000000011
 30
0.0
 11
65.80329299999971
 21
-14.99999999999988
 31
0.0
  0
LINE
  5
51AC
330
A
100
AcDbEntity
  8
0
  6
Continuous
 62
     7
100
AcDbLine
 10
51.0
 20
11.00000000000011
 30
0.0
 11
64.5919329999997
 21
11.00000000000011
 31
0.0
  0
LINE
  5
51AD
330
A
100
AcDbEntity
  8
0
  6
Continuous
 62
     9
100
AcDbLine
 10
51.0
 20
28.90000000000012
 30
0.0
 11
51.0
 21
11.00000000000011
 31
0.0
  0
LINE
  5
51AE
330
A
100
AcDbEntity
  8
0
  6
Continuous
 62
     7
100
AcDbLine
 10
56.79999999999996
 20
28.90000000000012
 30
0.0
 11
51.0
 21
28.90000000000012
 31
0.0
  0
ARC
  5
51AF
330
A
100
AcDbEntity
  8
0
  6
Continuous
 62
     7
100
AcDbCircle
 10
56.79999999999996
 20
29.10000000000011
 30
0.0
 40
0.2
100
AcDbArc
 50
270.0
 51
329.9999489999988
  0
LINE
  5
51B0
330
A
100
AcDbEntity
  8
0
  6
Continuous
 62
     7
100
AcDbLine
 10
70.5
 20
-14.99999999999988
 30
0.0
 11
70.5
 21
85.00000000000012
 31
0.0
  0
LINE
  5
51B1
330
A
100
AcDbEntity
  8
0
  6
Continuous
 62
     7
100
AcDbLine
 10
70.5
 20
85.00000000000012
 30
0.0
 11
65.80329299999971
 21
85.00000000000012
 31
0.0
  0
LINE
  5
51BD
330
A
100
AcDbEntity
  8
0
  6
Continuous
 62
     7
100
AcDbLine
 10
51.0
 20
41.10000000000013
 30
0.0
 11
40.0
 21
41.10000000000013
 31
0.0
  0
LINE
  5
51BE
330
A
100
AcDbEntity
  8
0
  6
Continuous
 62
     7
100
AcDbLine
 10
40.0
 20
41.10000000000013
 30
0.0
 11
40.0
 21
59.00000000000011
 31
0.0
  0
LINE
  5
51BF
330
A
100
AcDbEntity
  8
0
  6
Continuous
 62
     7
100
AcDbLine
 10
40.0
 20
59.00000000000011
 30
0.0
 11
51.0
 21
59.00000000000011
 31
0.0
  0
LINE
  5
51C0
330
A
100
AcDbEntity
  8
0
  6
Continuous
 62
     7
100
AcDbLine
 10
40.0
 20
28.90000000000012
 30
0.0
 11
51.0
 21
28.90000000000012
 31
0.0
  0
LINE
  5
51C1
330
A
100
AcDbEntity
  8
0
  6
Continuous
 62
     7
100
AcDbLine
 10
51.0
 20
11.00000000000011
 30
0.0
 11
40.0
 21
11.00000000000011
 31
0.0
  0
LINE
  5
51C2
330
A
100
AcDbEntity
  8
0
  6
Continuous
 62
     7
100
AcDbLine
 10
40.0
 20
11.00000000000011
 30
0.0
 11
40.0
 21
28.90000000000012
 31
0.0
  0
LINE
  5
51C3
330
A
100
AcDbEntity
  8
0
  6
Continuous
 62
     9
100
AcDbLine
 10
65.29255299999999
 20
10.00000000000011
 30
0.0
 11
65.80329299999971
 21
10.00000000000011
 31
0.0
  0
LINE
  5
51D0
330
A
100
AcDbEntity
  8
0
  6
Continuous
 62
     7
100
AcDbLine
 10
65.29255299999999
 20
-14.99999999999988
 30
0.0
 11
65.80329299999971
 21
-14.99999999999988
 31
0.0
  0
LINE
  5
51D1
330
A
100
AcDbEntity
  8
0
  6
Continuous
 62
     7
100
AcDbLine
 10
65.29255299999999
 20
-14.99999999999988
 30
0.0
 11
65.29255299999999
 21
10.00000000000011
 31
0.0
  0
ARC
  5
51D2
330
A
100
AcDbEntity
  8
0
  6
Continuous
 62
     9
100
AcDbCircle
 10
-12.50000000000017
 20
80.50000000000011
 30
0.0
 40
3.5
100
AcDbArc
 50
90.0
 51
180.0
  0
LINE
  5
51D3
330
A
100
AcDbEntity
  8
0
  6
Continuous
 62
     9
100
AcDbLine
 10
-16.00000000000006
 20
80.50000000000011
 30
0.0
 11
-17.00000000000017
 21
80.50000000000011
 31
0.0
  0
ARC
  5
51D4
330
A
100
AcDbEntity
  8
0
  6
Continuous
 62
     7
100
AcDbCircle
 10
-12.50000000000017
 20
80.50000000000011
 30
0.0
 40
4.5
100
AcDbArc
 50
90.0
 51
180.0
  0
LINE
  5
51D5
330
A
100
AcDbEntity
  8
0
  6
Continuous
 62
     9
100
AcDbLine
 10
-12.50000000000017
 20
84.00000000000011
 30
0.0
 11
-12.50000000000017
 21
85.00000000000012
 31
0.0
  0
LINE
  5
51D6
330
A
100
AcDbEntity
  8
0
  6
Continuous
 62
     9
100
AcDbLine
 10
63.0
 20
84.00000000000011
 30
0.0
 11
59.0
 21
84.00000000000011
 31
0.0
  0
LINE
  5
51D7
330
A
100
AcDbEntity
  8
0
  6
Continuous
 62
     9
100
AcDbLine
 10
59.0
 20
84.00000000000011
 30
0.0
 11
59.0
 21
85.00000000000012
 31
0.0
  0
LINE
  5
51D8
330
A
100
AcDbEntity
  8
0
  6
Continuous
 62
     7
100
AcDbLine
 10
59.0
 20
85.00000000000012
 30
0.0
 11
62.0
 21
85.00000000000012
 31
0.0
  0
ARC
  5
51D9
330
A
100
AcDbEntity
  8
0
  6
Continuous
 62
     7
100
AcDbCircle
 10
62.0
 20
84.00000000000011
 30
0.0
 40
1.0
100
AcDbArc
 50
0.0
 51
90.0
  0
LINE
  5
51DA
330
A
100
AcDbEntity
  8
0
  6
Continuous
 62
     9
100
AcDbLine
 10
59.0
 20
84.00000000000011
 30
0.0
 11
-12.50000000000017
 21
84.00000000000011
 31
0.0
  0
LINE
  5
51DB
330
A
100
AcDbEntity
  8
0
  6
Continuous
 62
     7
100
AcDbLine
 10
-12.50000000000017
 20
85.00000000000012
 30
0.0
 11
59.0
 21
85.00000000000012
 31
0.0
  0
LINE
  5
51DC
330
A
100
AcDbEntity
  8
0
  6
Continuous
 62
     7
100
AcDbLine
 10
63.0
 20
60.30000000000012
 30
0.0
 11
59.0
 21
60.30000000000012
 31
0.0
  0
LINE
  5
51DD
330
A
100
AcDbEntity
  8
0
  6
Continuous
 62
     9
100
AcDbLine
 10
59.0
 20
60.30000000000012
 30
0.0
 11
59.0
 21
84.00000000000011
 31
0.0
  0
LINE
  5
51DE
330
A
100
AcDbEntity
  8
0
  6
Continuous
 62
     7
100
AcDbLine
 10
63.0
 20
84.00000000000011
 30
0.0
 11
63.0
 21
60.30000000000012
 31
0.0
  0
LINE
  5
51DF
330
A
100
AcDbEntity
  8
0
  6
Continuous
 62
     7
100
AcDbLine
 10
38.5
 20
60.30000000000012
 30
0.0
 11
59.0
 21
60.30000000000012
 31
0.0
  0
LINE
  5
51E0
330
A
100
AcDbEntity
  8
0
  6
Continuous
 62
     7
100
AcDbLine
 10
38.5
 20
42.00000000000011
 30
0.0
 11
38.5
 21
60.30000000000012
 31
0.0
  0
LINE
  5
51E1
330
A
100
AcDbEntity
  8
0
  6
Continuous
 62
     7
100
AcDbLine
 10
32.0
 20
42.00000000000011
 30
0.0
 11
38.5
 21
42.00000000000011
 31
0.0
  0
LINE
  5
51E2
330
A
100
AcDbEntity
  8
0
  6
Continuous
 62
     7
100
AcDbLine
 10
32.0
 20
28.00000000000011
 30
0.0
 11
32.0
 21
42.00000000000011
 31
0.0
  0
LINE
  5
51E3
330
A
100
AcDbEntity
  8
0
  6
Continuous
 62
     7
100
AcDbLine
 10
38.5
 20
28.00000000000011
 30
0.0
 11
32.0
 21
28.00000000000011
 31
0.0
  0
LINE
  5
51E4
330
A
100
AcDbEntity
  8
0
  6
Continuous
 62
     7
100
AcDbLine
 10
38.5
 20
9.700000000000102
 30
0.0
 11
38.5
 21
28.00000000000011
 31
0.0
  0
LINE
  5
51E5
330
A
100
AcDbEntity
  8
0
  6
Continuous
 62
     7
100
AcDbLine
 10
59.0
 20
9.700000000000102
 30
0.0
 11
38.5
 21
9.700000000000102
 31
0.0
  0
LINE
  5
51E6
330
A
100
AcDbEntity
  8
0
  6
Continuous
 62
     9
100
AcDbLine
 10
59.0
 20
-13.99999999999989
 30
0.0
 11
59.0
 21
9.700000000000102
 31
0.0
  0
LINE
  5
51E7
330
A
100
AcDbEntity
  8
0
  6
Continuous
 62
     9
100
AcDbLine
 10
-12.50000000000017
 20
-13.99999999999989
 30
0.0
 11
59.0
 21
-13.99999999999989
 31
0.0
  0
ARC
  5
51E8
330
A
100
AcDbEntity
  8
0
  6
Continuous
 62
     9
100
AcDbCircle
 10
-12.50000000000017
 20
-10.49999999999988
 30
0.0
 40
3.5
100
AcDbArc
 50
180.0
 51
270.0
  0
LINE
  5
51E9
330
A
100
AcDbEntity
  8
0
  6
Continuous
 62
     9
100
AcDbLine
 10
-16.00000000000006
 20
80.50000000000011
 30
0.0
 11
-16.00000000000006
 21
-10.49999999999988
 31
0.0
  0
LINE
  5
51EA
330
A
100
AcDbEntity
  8
0
  6
Continuous
 62
     9
100
AcDbLine
 10
-17.00000000000017
 20
-10.49999999999988
 30
0.0
 11
-16.00000000000006
 21
-10.49999999999988
 31
0.0
  0
LINE
  5
51EB
330
A
100
AcDbEntity
  8
0
  6
Continuous
 62
     7
100
AcDbLine
 10
-17.00000000000017
 20
-10.49999999999988
 30
0.0
 11
-17.00000000000017
 21
80.50000000000011
 31
0.0
  0
LINE
  5
51EC
330
A
100
AcDbEntity
  8
0
  6
Continuous
 62
     7
100
AcDbLine
 10
63.0
 20
9.700000000000102
 30
0.0
 11
63.0
 21
-13.99999999999989
 31
0.0
  0
LINE
  5
51ED
330
A
100
AcDbEntity
  8
0
  6
Continuous
 62
     9
100
AcDbLine
 10
59.0
 20
-13.99999999999989
 30
0.0
 11
63.0
 21
-13.99999999999989
 31
0.0
  0
LINE
  5
51EE
330
A
100
AcDbEntity
  8
0
  6
Continuous
 62
     7
100
AcDbLine
 10
59.0
 20
9.700000000000102
 30
0.0
 11
63.0
 21
9.700000000000102
 31
0.0
  0
ARC
  5
51EF
330
A
100
AcDbEntity
  8
0
  6
Continuous
 62
     7
100
AcDbCircle
 10
-12.50000000000017
 20
-10.49999999999988
 30
0.0
 40
4.5
100
AcDbArc
 50
180.0
 51
270.0
  0
LINE
  5
51F0
330
A
100
AcDbEntity
  8
0
  6
Continuous
 62
     9
100
AcDbLine
 10
-12.50000000000017
 20
-14.99999999999988
 30
0.0
 11
-12.50000000000017
 21
-13.99999999999989
 31
0.0
  0
LINE
  5
51F1
330
A
100
AcDbEntity
  8
0
  6
Continuous
 62
     7
100
AcDbLine
 10
62.0
 20
-14.99999999999988
 30
0.0
 11
59.0
 21
-14.99999999999988
 31
0.0
  0
LINE
  5
51F2
330
A
100
AcDbEntity
  8
0
  6
Continuous
 62
     9
100
AcDbLine
 10
59.0
 20
-14.99999999999988
 30
0.0
 11
59.0
 21
-13.99999999999989
 31
0.0
  0
ARC
  5
51F3
330
A
100
AcDbEntity
  8
0
  6
Continuous
 62
     7
100
AcDbCircle
 10
62.0
 20
-13.99999999999989
 30
0.0
 40
1.0
100
AcDbArc
 50
270.0
 51
0.0
  0
LINE
  5
51F4
330
A
100
AcDbEntity
  8
0
  6
Continuous
 62
     7
100
AcDbLine
 10
59.0
 20
-14.99999999999988
 30
0.0
 11
-12.50000000000017
 21
-14.99999999999988
 31
0.0
  0
LINE
  5
51F5
330
A
100
AcDbEntity
  8
0
  6
Continuous
 62
     9
100
AcDbLine
 10
41.74999999999999
 20
10.55000000000012
 30
0.0
 11
49.46909199999982
 21
10.55000000000012
 31
0.0
  0
LINE
  5
51F6
330
A
100
AcDbEntity
  8
0
  6
Continuous
 62
     9
100
AcDbLine
 10
49.46909199999982
 20
10.55000000000012
 30
0.0
 11
58.25
 21
10.55000000000012
 31
0.0
  0
LINE
  5
51F7
330
A
100
AcDbEntity
  8
0
  6
Continuous
 62
     7
100
AcDbLine
 10
42.34999999999979
 20
9.950000000000102
 30
0.0
 11
49.50770299999999
 21
9.950000000000102
 31
0.0
  0
LINE
  5
51F8
330
A
100
AcDbEntity
  8
0
  6
Continuous
 62
     7
100
AcDbLine
 10
49.50770299999999
 20
9.950000000000102
 30
0.0
 11
57.64999999999997
 21
9.950000000000102
 31
0.0
  0
LINE
  5
51F9
330
A
100
AcDbEntity
  8
0
  6
Continuous
 62
     7
100
AcDbLine
 10
45.14999999999997
 20
9.950000000000102
 30
0.0
 11
49.18368799999985
 21
9.950000000000102
 31
0.0
  0
LINE
  5
51FA
330
A
100
AcDbEntity
  8
0
  6
Continuous
 62
     7
100
AcDbLine
 10
49.60757799999999
 20
9.950000000000102
 30
0.0
 11
49.68789000000004
 21
9.950000000000102
 31
0.0
  0
LINE
  5
51FB
330
A
100
AcDbEntity
  8
0
  6
Continuous
 62
     7
100
AcDbLine
 10
50.70099199999981
 20
9.950000000000102
 30
0.0
 11
54.32996500000001
 21
9.950000000000102
 31
0.0
  0
LINE
  5
51FC
330
A
100
AcDbEntity
  8
0
  6
Continuous
 62
     7
100
AcDbLine
 10
54.32996500000001
 20
9.950000000000102
 30
0.0
 11
54.84999999999979
 21
9.950000000000102
 31
0.0
  0
LINE
  5
51FD
330
A
100
AcDbEntity
  8
0
  6
Continuous
 62
     9
100
AcDbLine
 10
51.78790700000002
 20
29.00000000000011
 30
0.0
 11
51.78790700000002
 21
41.00000000000011
 31
0.0
  0
LINE
  5
51FE
330
A
100
AcDbEntity
  8
0
  6
Continuous
 62
     9
100
AcDbLine
 10
52.58689599999991
 20
41.00000000000011
 30
0.0
 11
52.58689599999991
 21
29.00000000000011
 31
0.0
  0
LINE
  5
51FF
330
A
100
AcDbEntity
  8
0
  6
Continuous
 62
     7
100
AcDbLine
 10
52.58689599999991
 20
29.00000000000011
 30
0.0
 11
51.78790700000002
 21
29.00000000000011
 31
0.0
  0
LINE
  5
5200
330
A
100
AcDbEntity
  8
0
  6
Continuous
 62
     7
100
AcDbLine
 10
51.78790700000002
 20
41.00000000000011
 30
0.0
 11
52.58689599999991
 21
41.00000000000011
 31
0.0
  0
LINE
  5
5201
330
A
100
AcDbEntity
  8
0
  6
Continuous
 62
     7
100
AcDbLine
 10
58.50429999999994
 20
41.00000000000011
 30
0.0
 11
58.50429999999994
 21
29.00000000000011
 31
0.0
  0
LINE
  5
5202
330
A
100
AcDbEntity
  8
0
  6
Continuous
 62
     7
100
AcDbLine
 10
52.58689599999991
 20
29.00000000000011
 30
0.0
 11
58.50429999999994
 21
29.00000000000011
 31
0.0
  0
LINE
  5
5203
330
A
100
AcDbEntity
  8
0
  6
Continuous
 62
     7
100
AcDbLine
 10
52.58689599999991
 20
41.00000000000011
 30
0.0
 11
58.50429999999994
 21
41.00000000000011
 31
0.0
  0
LINE
  5
5204
330
A
100
AcDbEntity
  8
0
  6
Continuous
 62
     9
100
AcDbLine
 10
47.22448699999995
 20
29.00000000000011
 30
0.0
 11
47.22448699999995
 21
41.00000000000011
 31
0.0
  0
LINE
  5
5205
330
A
100
AcDbEntity
  8
0
  6
Continuous
 62
     9
100
AcDbLine
 10
48.44684399999994
 20
41.00000000000011
 30
0.0
 11
48.44684399999994
 21
29.00000000000011
 31
0.0
  0
LINE
  5
5206
330
A
100
AcDbEntity
  8
0
  6
Continuous
 62
     7
100
AcDbLine
 10
48.44684399999994
 20
29.00000000000011
 30
0.0
 11
47.22448699999995
 21
29.00000000000011
 31
0.0
  0
LINE
  5
5207
330
A
100
AcDbEntity
  8
0
  6
Continuous
 62
     7
100
AcDbLine
 10
47.22448699999995
 20
41.00000000000011
 30
0.0
 11
48.44684399999994
 21
41.00000000000011
 31
0.0
  0
LINE
  5
5208
330
A
100
AcDbEntity
  8
0
  6
Continuous
 62
     7
100
AcDbLine
 10
51.78790700000002
 20
29.00000000000011
 30
0.0
 11
48.44684399999994
 21
29.00000000000011
 31
0.0
  0
LINE
  5
5209
330
A
100
AcDbEntity
  8
0
  6
Continuous
 62
     7
100
AcDbLine
 10
51.78790700000002
 20
41.00000000000011
 30
0.0
 11
48.44684399999994
 21
41.00000000000011
 31
0.0
  0
LINE
  5
520A
330
A
100
AcDbEntity
  8
0
  6
Continuous
 62
     7
100
AcDbLine
 10
36.90999999999997
 20
29.00000000000011
 30
0.0
 11
36.90999999999997
 21
41.00000000000011
 31
0.0
  0
LINE
  5
520B
330
A
100
AcDbEntity
  8
0
  6
Continuous
 62
     7
100
AcDbLine
 10
36.90999999999997
 20
29.00000000000011
 30
0.0
 11
47.22448699999995
 21
29.00000000000011
 31
0.0
  0
LINE
  5
520C
330
A
100
AcDbEntity
  8
0
  6
Continuous
 62
     7
100
AcDbLine
 10
36.90999999999997
 20
41.00000000000011
 30
0.0
 11
47.22448699999995
 21
41.00000000000011
 31
0.0
  0
LINE
  5
520D
330
A
100
AcDbEntity
  8
0
  6
Continuous
 62
     9
100
AcDbLine
 10
36.71455700000001
 20
41.00000000000011
 30
0.0
 11
36.71455700000001
 21
29.00000000000011
 31
0.0
  0
LINE
  5
520E
330
A
100
AcDbEntity
  8
0
  6
Continuous
 62
     7
100
AcDbLine
 10
36.71455700000001
 20
29.00000000000011
 30
0.0
 11
36.81486699999982
 21
29.00000000000011
 31
0.0
  0
LINE
  5
520F
330
A
100
AcDbEntity
  8
0
  6
Continuous
 62
     7
100
AcDbLine
 10
36.81486699999982
 20
29.00000000000011
 30
0.0
 11
36.90999999999997
 21
29.00000000000011
 31
0.0
  0
LINE
  5
5210
330
A
100
AcDbEntity
  8
0
  6
Continuous
 62
     7
100
AcDbLine
 10
36.71455700000001
 20
41.00000000000011
 30
0.0
 11
36.90999999999997
 21
41.00000000000011
 31
0.0
  0
LINE
  5
5211
330
A
100
AcDbEntity
  8
0
  6
Continuous
 62
     7
100
AcDbLine
 10
36.65379999999982
 20
41.00000000000011
 30
0.0
 11
36.71455700000001
 21
41.00000000000011
 31
0.0
  0
LINE
  5
5212
330
A
100
AcDbEntity
  8
0
  6
Continuous
 62
     7
100
AcDbLine
 10
36.71455700000001
 20
29.00000000000011
 30
0.0
 11
36.65379999999982
 21
29.00000000000011
 31
0.0
  0
ARC
  5
5213
330
A
100
AcDbEntity
  8
0
  6
Continuous
 62
     7
100
AcDbCircle
 10
57.64999999999997
 20
59.4500000000001
 30
0.0
 40
0.6
100
AcDbArc
 50
0.0
 51
90.0
  0
ARC
  5
5214
330
A
100
AcDbEntity
  8
0
  6
Continuous
 62
     7
100
AcDbCircle
 10
42.34999999999979
 20
59.4500000000001
 30
0.0
 40
0.6
100
AcDbArc
 50
90.0
 51
180.0
  0
LINE
  5
5215
330
A
100
AcDbEntity
  8
0
  6
Continuous
 62
     7
100
AcDbLine
 10
58.25
 20
59.00000000000011
 30
0.0
 11
58.25
 21
59.4500000000001
 31
0.0
  0
LINE
  5
5216
330
A
100
AcDbEntity
  8
0
  6
Continuous
 62
     7
100
AcDbLine
 10
41.74999999999999
 20
59.4500000000001
 30
0.0
 11
41.74999999999999
 21
59.00000000000011
 31
0.0
  0
LINE
  5
5217
330
A
100
AcDbEntity
  8
0
  6
Continuous
 62
     7
100
AcDbLine
 10
54.75
 20
28.90000000000012
 30
0.0
 11
54.69999999999993
 21
28.9500000000001
 31
0.0
  0
LINE
  5
5218
330
A
100
AcDbEntity
  8
0
  6
Continuous
 62
     7
100
AcDbLine
 10
45.29999999999984
 20
28.9500000000001
 30
0.0
 11
45.25
 21
28.90000000000012
 31
0.0
  0
LINE
  5
5219
330
A
100
AcDbEntity
  8
0
  6
Continuous
 62
     7
100
AcDbLine
 10
45.25
 20
41.10000000000013
 30
0.0
 11
45.29999999999984
 21
41.05000000000012
 31
0.0
  0
LINE
  5
521A
330
A
100
AcDbEntity
  8
0
  6
Continuous
 62
     7
100
AcDbLine
 10
54.69999999999993
 20
41.05000000000012
 30
0.0
 11
54.75
 21
41.10000000000013
 31
0.0
  0
LINE
  5
521B
330
A
100
AcDbEntity
  8
0
  6
Continuous
 62
     7
100
AcDbLine
 10
54.0
 20
9.700000000000102
 30
0.0
 11
54.0
 21
9.950000000000102
 31
0.0
  0
LINE
  5
521C
330
A
100
AcDbEntity
  8
0
  6
Continuous
 62
     7
100
AcDbLine
 10
54.0
 20
28.9500000000001
 30
0.0
 11
54.0
 21
29.00000000000011
 31
0.0
  0
LINE
  5
521D
330
A
100
AcDbEntity
  8
0
  6
Continuous
 62
     7
100
AcDbLine
 10
54.0
 20
41.00000000000011
 30
0.0
 11
54.0
 21
41.05000000000012
 31
0.0
  0
LINE
  5
521E
330
A
100
AcDbEntity
  8
0
  6
Continuous
 62
     7
100
AcDbLine
 10
54.0
 20
60.05000000000013
 30
0.0
 11
54.0
 21
60.30000000000012
 31
0.0
  0
LINE
  5
521F
330
A
100
AcDbEntity
  8
0
  6
Continuous
 62
     7
100
AcDbLine
 10
46.0
 20
60.30000000000012
 30
0.0
 11
46.0
 21
60.05000000000013
 31
0.0
  0
LINE
  5
5220
330
A
100
AcDbEntity
  8
0
  6
Continuous
 62
     7
100
AcDbLine
 10
46.0
 20
41.05000000000012
 30
0.0
 11
46.0
 21
41.00000000000011
 31
0.0
  0
LINE
  5
5221
330
A
100
AcDbEntity
  8
0
  6
Continuous
 62
     7
100
AcDbLine
 10
46.0
 20
29.00000000000011
 30
0.0
 11
46.0
 21
28.9500000000001
 31
0.0
  0
LINE
  5
5222
330
A
100
AcDbEntity
  8
0
  6
Continuous
 62
     7
100
AcDbLine
 10
46.0
 20
9.950000000000102
 30
0.0
 11
46.0
 21
9.700000000000102
 31
0.0
  0
LINE
  5
5223
330
A
100
AcDbEntity
  8
0
  6
Continuous
 62
     7
100
AcDbLine
 10
41.74999999999999
 20
11.00000000000011
 30
0.0
 11
41.74999999999999
 21
10.55000000000012
 31
0.0
  0
LINE
  5
5224
330
A
100
AcDbEntity
  8
0
  6
Continuous
 62
     7
100
AcDbLine
 10
58.25
 20
10.55000000000012
 30
0.0
 11
58.25
 21
11.00000000000011
 31
0.0
  0
ARC
  5
5225
330
A
100
AcDbEntity
  8
0
  6
Continuous
 62
     7
100
AcDbCircle
 10
42.34999999999979
 20
10.55000000000012
 30
0.0
 40
0.6
100
AcDbArc
 50
180.0
 51
270.0
  0
ARC
  5
5226
330
A
100
AcDbEntity
  8
0
  6
Continuous
 62
     7
100
AcDbCircle
 10
57.64999999999997
 20
10.55000000000012
 30
0.0
 40
0.6
100
AcDbArc
 50
270.0
 51
0.0
  0
LINE
  5
5227
330
A
100
AcDbEntity
  8
0
  6
Continuous
 62
     7
100
AcDbLine
 10
36.65379999999982
 20
41.00000000000011
 30
0.0
 11
36.65379999999982
 21
29.00000000000011
 31
0.0
  0
TEXT
  5
70C4
330
A
100
AcDbEntity
  8
0
  6
Continuous
 62
     7
370
     0
100
AcDbText
 10
83.37522413616397
 20
145.0073206442168
 30
0.0
 40
10.0
  1
8631
100
AcDbText
  0
ARC
  5
70C5
330
A
100
AcDbEntity
  8
0
  6
Continuous
 62
     7
100
AcDbCircle
 10
145.4149802333252
 20
-103.2304640073584
 30
0.0
 40
2.419599575299312
100
AcDbArc
 50
285.750112425226
 51
301.7241553664373
  0
LINE
  5
70C6
330
A
100
AcDbEntity
  8
0
  6
Continuous
 62
     7
100
AcDbLine
 10
146.687279
 20
-105.2885499999999
 30
0.0
 11
146.8413929999999
 21
-105.1778129999998
 31
0.0
  0
LINE
  5
70C7
330
A
100
AcDbEntity
  8
0
  6
Continuous
 62
     7
100
AcDbLine
 10
146.8413929999999
 20
-105.1778129999998
 30
0.0
 11
146.964053
 21
-105.0666659999998
 31
0.0
  0
LINE
  5
70C8
330
A
100
AcDbEntity
  8
0
  6
Continuous
 62
     7
100
AcDbLine
 10
146.964053
 20
-105.0666659999998
 30
0.0
 11
147.061424
 21
-104.9561839999999
 31
0.0
  0
LINE
  5
70C9
330
A
100
AcDbEntity
  8
0
  6
Continuous
 62
     7
100
AcDbLine
 10
147.061424
 20
-104.9561839999999
 30
0.0
 11
147.1389659999999
 21
-104.8456839999999
 31
0.0
  0
LINE
  5
70CA
330
A
100
AcDbEntity
  8
0
  6
Continuous
 62
     7
100
AcDbLine
 10
147.1389659999999
 20
-104.8456839999999
 30
0.0
 11
147.1908709999997
 21
-104.7532419999998
 31
0.0
  0
LINE
  5
70CB
330
A
100
AcDbEntity
  8
0
  6
Continuous
 62
     7
100
AcDbLine
 10
169.6288509999999
 20
-59.54253799999986
 30
0.0
 11
169.6215919999997
 21
-59.41071999999988
 31
0.0
  0
LINE
  5
70CC
330
A
100
AcDbEntity
  8
0
  6
Continuous
 62
     7
100
AcDbLine
 10
169.6215919999997
 20
-59.41071999999988
 30
0.0
 11
169.5962519999997
 21
-59.26422199999987
 31
0.0
  0
LINE
  5
70CD
330
A
100
AcDbEntity
  8
0
  6
Continuous
 62
     7
100
AcDbLine
 10
169.5962519999997
 20
-59.26422199999987
 30
0.0
 11
169.5526599999997
 21
-59.11980599999989
 31
0.0
  0
LINE
  5
70CE
330
A
100
AcDbEntity
  8
0
  6
Continuous
 62
     7
100
AcDbLine
 10
169.5526599999997
 20
-59.11980599999989
 30
0.0
 11
169.490003
 21
-58.9771769999999
 31
0.0
  0
LINE
  5
70CF
330
A
100
AcDbEntity
  8
0
  6
Continuous
 62
     7
100
AcDbLine
 10
169.490003
 20
-58.9771769999999
 30
0.0
 11
169.4063289999997
 21
-58.83563999999987
 31
0.0
  0
LINE
  5
70D0
330
A
100
AcDbEntity
  8
0
  6
Continuous
 62
     7
100
AcDbLine
 10
169.4063289999997
 20
-58.83563999999987
 30
0.0
 11
169.297913
 21
-58.69406699999988
 31
0.0
  0
ARC
  5
70D1
330
A
100
AcDbEntity
  8
0
  6
Continuous
 62
     7
100
AcDbCircle
 10
167.2586502844669
 20
-60.74958945417248
 30
0.0
 40
2.895473188024825
100
AcDbArc
 50
45.2275112038929
 51
81.98917466020928
  0
LINE
  5
70D2
330
A
100
AcDbEntity
  8
0
  6
Continuous
 62
     7
100
AcDbLine
 10
163.5609119999997
 20
-119.3892039999999
 30
0.0
 11
163.6058139999998
 21
-119.3993289999999
 31
0.0
  0
LINE
  5
70D3
330
A
100
AcDbEntity
  8
0
  6
Continuous
 62
     7
100
AcDbLine
 10
163.6058139999998
 20
-119.3993289999999
 30
0.0
 11
163.650676
 21
-119.4113709999999
 31
0.0
  0
LINE
  5
70D4
330
A
100
AcDbEntity
  8
0
  6
Continuous
 62
     7
100
AcDbLine
 10
163.650676
 20
-119.4113709999999
 30
0.0
 11
163.695378
 21
-119.4253129999999
 31
0.0
  0
LINE
  5
70D5
330
A
100
AcDbEntity
  8
0
  6
Continuous
 62
     7
100
AcDbLine
 10
163.695378
 20
-119.4253129999999
 30
0.0
 11
163.7397979999998
 21
-119.4411349999999
 31
0.0
  0
LINE
  5
70D6
330
A
100
AcDbEntity
  8
0
  6
Continuous
 62
     7
100
AcDbLine
 10
163.7397979999998
 20
-119.4411349999999
 30
0.0
 11
163.7852729999999
 21
-119.4594399999999
 31
0.0
  0
LINE
  5
70D7
330
A
100
AcDbEntity
  8
0
  6
Continuous
 62
     7
100
AcDbLine
 10
163.7852729999999
 20
-119.4594399999999
 30
0.0
 11
163.8303479999998
 21
-119.4797709999999
 31
0.0
  0
LINE
  5
70D8
330
A
100
AcDbEntity
  8
0
  6
Continuous
 62
     7
100
AcDbLine
 10
163.8303479999998
 20
-119.4797709999999
 30
0.0
 11
163.874869
 21
-119.5020959999999
 31
0.0
  0
LINE
  5
70D9
330
A
100
AcDbEntity
  8
0
  6
Continuous
 62
     7
100
AcDbLine
 10
163.874869
 20
-119.5020959999999
 30
0.0
 11
163.918683
 21
-119.5263849999999
 31
0.0
  0
LINE
  5
70DA
330
A
100
AcDbEntity
  8
0
  6
Continuous
 62
     7
100
AcDbLine
 10
163.918683
 20
-119.5263849999999
 30
0.0
 11
163.9632089999998
 21
-119.5536099999999
 31
0.0
  0
LINE
  5
70DB
330
A
100
AcDbEntity
  8
0
  6
Continuous
 62
     7
100
AcDbLine
 10
163.9632089999998
 20
-119.5536099999999
 30
0.0
 11
164.0067959999998
 21
-119.5829539999999
 31
0.0
  0
LINE
  5
70DC
330
A
100
AcDbEntity
  8
0
  6
Continuous
 62
     7
100
AcDbLine
 10
164.0067959999998
 20
-119.5829539999999
 30
0.0
 11
164.0492409999997
 21
-119.6143549999999
 31
0.0
  0
LINE
  5
70DD
330
A
100
AcDbEntity
  8
0
  6
Continuous
 62
     7
100
AcDbLine
 10
164.0492409999997
 20
-119.6143549999999
 30
0.0
 11
164.0810769999999
 21
-119.6399449999999
 31
0.0
  0
LINE
  5
70DE
330
A
100
AcDbEntity
  8
0
  6
Continuous
 62
     7
100
AcDbLine
 10
164.0810769999999
 20
-119.6399449999999
 30
0.0
 11
164.112116
 21
-119.6667599999999
 31
0.0
  0
LINE
  5
70DF
330
A
100
AcDbEntity
  8
0
  6
Continuous
 62
     7
100
AcDbLine
 10
164.112116
 20
-119.6667599999999
 30
0.0
 11
164.142248
 21
-119.6947499999999
 31
0.0
  0
LINE
  5
70E0
330
A
100
AcDbEntity
  8
0
  6
Continuous
 62
     7
100
AcDbLine
 10
164.142248
 20
-119.6947499999999
 30
0.0
 11
164.1713609999997
 21
-119.7238659999999
 31
0.0
  0
LINE
  5
70E1
330
A
100
AcDbEntity
  8
0
  6
Continuous
 62
     7
100
AcDbLine
 10
164.1713609999997
 20
-119.7238659999999
 30
0.0
 11
164.2017660000001
 21
-119.7567709999999
 31
0.0
  0
LINE
  5
70E2
330
A
100
AcDbEntity
  8
0
  6
Continuous
 62
     7
100
AcDbLine
 10
164.2017660000001
 20
-119.7567709999999
 30
0.0
 11
164.230807
 21
-119.7909729999999
 31
0.0
  0
LINE
  5
70E3
330
A
100
AcDbEntity
  8
0
  6
Continuous
 62
     7
100
AcDbLine
 10
164.230807
 20
-119.7909729999999
 30
0.0
 11
164.258324
 21
-119.8263679999999
 31
0.0
  0
LINE
  5
70E4
330
A
100
AcDbEntity
  8
0
  6
Continuous
 62
     7
100
AcDbLine
 10
164.258324
 20
-119.8263679999999
 30
0.0
 11
164.278417
 21
-119.8544289999999
 31
0.0
  0
LINE
  5
70E5
330
A
100
AcDbEntity
  8
0
  6
Continuous
 62
     7
100
AcDbLine
 10
164.278417
 20
-119.8544289999999
 30
0.0
 11
164.2975040000001
 21
-119.8831639999999
 31
0.0
  0
LINE
  5
70E6
330
A
100
AcDbEntity
  8
0
  6
Continuous
 62
     7
100
AcDbLine
 10
164.2975040000001
 20
-119.8831639999999
 30
0.0
 11
164.3155099999999
 21
-119.9125029999999
 31
0.0
  0
LINE
  5
70E7
330
A
100
AcDbEntity
  8
0
  6
Continuous
 62
     7
100
AcDbLine
 10
164.3155099999999
 20
-119.9125029999999
 30
0.0
 11
164.3323589999998
 21
-119.9423739999999
 31
0.0
  0
LINE
  5
70E8
330
A
100
AcDbEntity
  8
0
  6
Continuous
 62
     7
100
AcDbLine
 10
164.3323589999998
 20
-119.9423739999999
 30
0.0
 11
164.3476269999997
 21
-119.9719909999999
 31
0.0
  0
LINE
  5
70E9
330
A
100
AcDbEntity
  8
0
  6
Continuous
 62
     7
100
AcDbLine
 10
164.3476269999997
 20
-119.9719909999999
 30
0.0
 11
164.361719
 21
-120.0020739999999
 31
0.0
  0
LINE
  5
70EA
330
A
100
AcDbEntity
  8
0
  6
Continuous
 62
     7
100
AcDbLine
 10
164.361719
 20
-120.0020739999999
 30
0.0
 11
164.3745709999997
 21
-120.0325339999999
 31
0.0
  0
LINE
  5
70EB
330
A
100
AcDbEntity
  8
0
  6
Continuous
 62
     7
100
AcDbLine
 10
164.3745709999997
 20
-120.0325339999999
 30
0.0
 11
164.386119
 21
-120.0632809999999
 31
0.0
  0
LINE
  5
70EC
330
A
100
AcDbEntity
  8
0
  6
Continuous
 62
     7
100
AcDbLine
 10
164.386119
 20
-120.0632809999999
 30
0.0
 11
164.3966839999997
 21
-120.0954669999999
 31
0.0
  0
LINE
  5
70ED
330
A
100
AcDbEntity
  8
0
  6
Continuous
 62
     7
100
AcDbLine
 10
164.3966839999997
 20
-120.0954669999999
 30
0.0
 11
164.4057729999997
 21
-120.1278919999999
 31
0.0
  0
LINE
  5
70EE
330
A
100
AcDbEntity
  8
0
  6
Continuous
 62
     7
100
AcDbLine
 10
164.4057729999997
 20
-120.1278919999999
 30
0.0
 11
164.4133389999998
 21
-120.1604339999999
 31
0.0
  0
LINE
  5
70EF
330
A
100
AcDbEntity
  8
0
  6
Continuous
 62
     7
100
AcDbLine
 10
164.4133389999998
 20
-120.1604339999999
 30
0.0
 11
164.4193319999998
 21
-120.1929689999998
 31
0.0
  0
LINE
  5
70F0
330
A
100
AcDbEntity
  8
0
  6
Continuous
 62
     7
100
AcDbLine
 10
164.4193319999998
 20
-120.1929689999998
 30
0.0
 11
164.4229759999999
 21
-120.2189849999999
 31
0.0
  0
LINE
  5
70F1
330
A
100
AcDbEntity
  8
0
  6
Continuous
 62
     7
100
AcDbLine
 10
164.4229759999999
 20
-120.2189849999999
 30
0.0
 11
164.4255899999997
 21
-120.2449469999999
 31
0.0
  0
LINE
  5
70F2
330
A
100
AcDbEntity
  8
0
  6
Continuous
 62
     7
100
AcDbLine
 10
164.4255899999997
 20
-120.2449469999999
 30
0.0
 11
164.4271639999999
 21
-120.2707839999999
 31
0.0
  0
LINE
  5
70F3
330
A
100
AcDbEntity
  8
0
  6
Continuous
 62
     7
100
AcDbLine
 10
164.4271639999999
 20
-120.2707839999999
 30
0.0
 11
164.427691
 21
-120.2964309999999
 31
0.0
  0
LINE
  5
70F4
330
A
100
AcDbEntity
  8
0
  6
Continuous
 62
     7
100
AcDbLine
 10
164.427691
 20
-83.78159399999987
 30
0.0
 11
164.4271179999999
 21
-83.80810599999989
 31
0.0
  0
LINE
  5
70F5
330
A
100
AcDbEntity
  8
0
  6
Continuous
 62
     7
100
AcDbLine
 10
164.4271179999999
 20
-83.80810599999989
 30
0.0
 11
164.4254059999999
 21
-83.83435999999989
 31
0.0
  0
LINE
  5
70F6
330
A
100
AcDbEntity
  8
0
  6
Continuous
 62
     7
100
AcDbLine
 10
164.4254059999999
 20
-83.83435999999989
 30
0.0
 11
164.4225649999999
 21
-83.8602829999999
 31
0.0
  0
LINE
  5
70F7
330
A
100
AcDbEntity
  8
0
  6
Continuous
 62
     7
100
AcDbLine
 10
164.4225649999999
 20
-83.8602829999999
 30
0.0
 11
164.4186059999999
 21
-83.8858029999999
 31
0.0
  0
LINE
  5
70F8
330
A
100
AcDbEntity
  8
0
  6
Continuous
 62
     7
100
AcDbLine
 10
164.4186059999999
 20
-83.8858029999999
 30
0.0
 11
164.4133549999997
 21
-83.91167499999989
 31
0.0
  0
LINE
  5
70F9
330
A
100
AcDbEntity
  8
0
  6
Continuous
 62
     7
100
AcDbLine
 10
164.4133549999997
 20
-83.91167499999989
 30
0.0
 11
164.4069389999998
 21
-83.93707299999988
 31
0.0
  0
LINE
  5
70FA
330
A
100
AcDbEntity
  8
0
  6
Continuous
 62
     7
100
AcDbLine
 10
164.4069389999998
 20
-83.93707299999988
 30
0.0
 11
164.3993879999997
 21
-83.96192899999988
 31
0.0
  0
LINE
  5
70FB
330
A
100
AcDbEntity
  8
0
  6
Continuous
 62
     7
100
AcDbLine
 10
164.3993879999997
 20
-83.96192899999988
 30
0.0
 11
164.3907339999997
 21
-83.98617699999988
 31
0.0
  0
LINE
  5
70FC
330
A
100
AcDbEntity
  8
0
  6
Continuous
 62
     7
100
AcDbLine
 10
164.3907339999997
 20
-83.98617699999988
 30
0.0
 11
164.381311
 21
-84.00907499999988
 31
0.0
  0
LINE
  5
70FD
330
A
100
AcDbEntity
  8
0
  6
Continuous
 62
     7
100
AcDbLine
 10
164.381311
 20
-84.00907499999988
 30
0.0
 11
164.3708919999997
 21
-84.03137599999988
 31
0.0
  0
LINE
  5
70FE
330
A
100
AcDbEntity
  8
0
  6
Continuous
 62
     7
100
AcDbLine
 10
164.3708919999997
 20
-84.03137599999988
 30
0.0
 11
164.359517
 21
-84.05303399999988
 31
0.0
  0
LINE
  5
70FF
330
A
100
AcDbEntity
  8
0
  6
Continuous
 62
     7
100
AcDbLine
 10
164.359517
 20
-84.05303399999988
 30
0.0
 11
164.347226
 21
-84.07400599999988
 31
0.0
  0
LINE
  5
7100
330
A
100
AcDbEntity
  8
0
  6
Continuous
 62
     7
100
AcDbLine
 10
164.347226
 20
-84.07400599999988
 30
0.0
 11
164.3289669999999
 21
-84.10157199999989
 31
0.0
  0
LINE
  5
7101
330
A
100
AcDbEntity
  8
0
  6
Continuous
 62
     7
100
AcDbLine
 10
164.3289669999999
 20
-84.10157199999989
 30
0.0
 11
164.3091139999997
 21
-84.12781599999988
 31
0.0
  0
LINE
  5
7102
330
A
100
AcDbEntity
  8
0
  6
Continuous
 62
     7
100
AcDbLine
 10
164.3091139999997
 20
-84.12781599999988
 30
0.0
 11
164.287782
 21
-84.15266399999987
 31
0.0
  0
LINE
  5
7103
330
A
100
AcDbEntity
  8
0
  6
Continuous
 62
     7
100
AcDbLine
 10
164.287782
 20
-84.15266399999987
 30
0.0
 11
164.264016
 21
-84.17707599999989
 31
0.0
  0
LINE
  5
7104
330
A
100
AcDbEntity
  8
0
  6
Continuous
 62
     7
100
AcDbLine
 10
164.264016
 20
-84.17707599999989
 30
0.0
 11
164.2387629999999
 21
-84.19997099999989
 31
0.0
  0
LINE
  5
7105
330
A
100
AcDbEntity
  8
0
  6
Continuous
 62
     7
100
AcDbLine
 10
164.2387629999999
 20
-84.19997099999989
 30
0.0
 11
164.2121469999997
 21
-84.22131899999987
 31
0.0
  0
LINE
  5
7106
330
A
100
AcDbEntity
  8
0
  6
Continuous
 62
     7
100
AcDbLine
 10
164.2121469999997
 20
-84.22131899999987
 30
0.0
 11
164.184298
 21
-84.24108799999988
 31
0.0
  0
LINE
  5
7107
330
A
100
AcDbEntity
  8
0
  6
Continuous
 62
     7
100
AcDbLine
 10
164.184298
 20
-84.24108799999988
 30
0.0
 11
164.155341
 21
-84.25924899999989
 31
0.0
  0
LINE
  5
7108
330
A
100
AcDbEntity
  8
0
  6
Continuous
 62
     7
100
AcDbLine
 10
164.155341
 20
-84.25924899999989
 30
0.0
 11
164.125403
 21
-84.27577099999988
 31
0.0
  0
LINE
  5
7109
330
A
100
AcDbEntity
  8
0
  6
Continuous
 62
     7
100
AcDbLine
 10
164.125403
 20
-84.27577099999988
 30
0.0
 11
164.0895859999999
 21
-84.29288199999991
 31
0.0
  0
LINE
  5
710A
330
A
100
AcDbEntity
  8
0
  6
Continuous
 62
     7
100
AcDbLine
 10
164.0895859999999
 20
-84.29288199999991
 30
0.0
 11
164.0525319999997
 21
-84.30792199999988
 31
0.0
  0
LINE
  5
710B
330
A
100
AcDbEntity
  8
0
  6
Continuous
 62
     7
100
AcDbLine
 10
164.0525319999997
 20
-84.30792199999988
 30
0.0
 11
164.0143940000001
 21
-84.32090099999987
 31
0.0
  0
LINE
  5
710C
330
A
100
AcDbEntity
  8
0
  6
Continuous
 62
     7
100
AcDbLine
 10
164.0143940000001
 20
-84.32090099999987
 30
0.0
 11
163.9753269999997
 21
-84.33183199999991
 31
0.0
  0
LINE
  5
710D
330
A
100
AcDbEntity
  8
0
  6
Continuous
 62
     7
100
AcDbLine
 10
163.9753269999997
 20
-84.33183199999991
 30
0.0
 11
163.9554919999997
 21
-84.33655299999989
 31
0.0
  0
ARC
  5
710E
330
A
100
AcDbEntity
  8
0
  6
Continuous
 62
     7
100
AcDbCircle
 10
63.81865427236426
 20
10.01982704819821
 30
0.0
 40
1.474032079422348
100
AcDbArc
 50
359.2292973428378
 51
21.81205100639796
  0
LINE
  5
710F
330
A
100
AcDbEntity
  8
0
  6
Continuous
 62
     7
100
AcDbLine
 10
65.18715699999996
 20
10.5675230000001
 30
0.0
 11
65.13732300000015
 21
10.6645860000001
 31
0.0
  0
LINE
  5
7110
330
A
100
AcDbEntity
  8
0
  6
Continuous
 62
     7
100
AcDbLine
 10
65.13732300000015
 20
10.6645860000001
 30
0.0
 11
65.07561099999998
 21
10.75325800000013
 31
0.0
  0
LINE
  5
7111
330
A
100
AcDbEntity
  8
0
  6
Continuous
 62
     7
100
AcDbLine
 10
65.07561099999998
 20
10.75325800000013
 30
0.0
 11
65.00090599999976
 21
10.83170700000011
 31
0.0
  0
LINE
  5
7112
330
A
100
AcDbEntity
  8
0
  6
Continuous
 62
     7
100
AcDbLine
 10
65.00090599999976
 20
10.83170700000011
 30
0.0
 11
64.91874599999983
 21
10.89375400000011
 31
0.0
  0
LINE
  5
7113
330
A
100
AcDbEntity
  8
0
  6
Continuous
 62
     7
100
AcDbLine
 10
64.91874599999983
 20
10.89375400000011
 30
0.0
 11
64.82390199999975
 21
10.94327100000012
 31
0.0
  0
LINE
  5
7114
330
A
100
AcDbEntity
  8
0
  6
Continuous
 62
     7
100
AcDbLine
 10
64.82390199999975
 20
10.94327100000012
 30
0.0
 11
64.71839499999998
 21
10.9778400000001
 31
0.0
  0
LINE
  5
7115
330
A
100
AcDbEntity
  8
0
  6
Continuous
 62
     7
100
AcDbLine
 10
64.71839499999998
 20
10.9778400000001
 30
0.0
 11
64.60465399999998
 21
10.99643700000012
 31
0.0
  0
LINE
  5
7116
330
A
100
AcDbEntity
  8
0
  6
Continuous
 62
     7
100
AcDbLine
 10
64.60465399999998
 20
10.99643700000012
 30
0.0
 11
64.52431299999978
 21
11.00000000000011
 31
0.0
  0
LINE
  5
7117
330
A
100
AcDbEntity
  8
0
  6
Continuous
 62
     7
100
AcDbLine
 10
64.52431299999978
 20
59.00000000000011
 30
0.0
 11
64.65544
 21
59.00974500000012
 31
0.0
  0
LINE
  5
7118
330
A
100
AcDbEntity
  8
0
  6
Continuous
 62
     7
100
AcDbLine
 10
64.65544
 20
59.00974500000012
 30
0.0
 11
64.78175899999996
 21
59.04063500000012
 31
0.0
  0
LINE
  5
7119
330
A
100
AcDbEntity
  8
0
  6
Continuous
 62
     7
100
AcDbLine
 10
64.78175899999996
 20
59.04063500000012
 30
0.0
 11
64.89284499999996
 21
59.09066400000011
 31
0.0
  0
LINE
  5
711A
330
A
100
AcDbEntity
  8
0
  6
Continuous
 62
     7
100
AcDbLine
 10
64.89284499999996
 20
59.09066400000011
 30
0.0
 11
64.99301100000014
 21
59.16137400000014
 31
0.0
  0
LINE
  5
711B
330
A
100
AcDbEntity
  8
0
  6
Continuous
 62
     7
100
AcDbLine
 10
64.99301100000014
 20
59.16137400000014
 30
0.0
 11
65.07764899999973
 21
59.24925900000011
 31
0.0
  0
LINE
  5
711C
330
A
100
AcDbEntity
  8
0
  6
Continuous
 62
     7
100
AcDbLine
 10
65.07764899999973
 20
59.24925900000011
 30
0.0
 11
65.14868599999999
 21
59.35506100000009
 31
0.0
  0
LINE
  5
711D
330
A
100
AcDbEntity
  8
0
  6
Continuous
 62
     7
100
AcDbLine
 10
65.14868599999999
 20
59.35506100000009
 30
0.0
 11
65.19534799999997
 21
59.45166800000021
 31
0.0
  0
ARC
  5
711E
330
A
100
AcDbEntity
  8
0
  6
Continuous
 62
     7
100
AcDbCircle
 10
63.85142394430909
 20
59.97269273493799
 30
0.0
 40
1.441387748623428
100
AcDbArc
 50
338.809229948294
 51
1.085540409182148
  0
ARC
  5
711F
330
A
100
AcDbEntity
  8
0
  6
Continuous
 62
     7
100
AcDbCircle
 10
64.60942881179858
 20
9.642857355423018
 30
0.0
 40
1.357255414857574
100
AcDbArc
 50
51.99875087162574
 51
90.73859638230478
  0
LINE
  5
7120
330
A
100
AcDbEntity
  8
0
  6
Continuous
 62
     7
100
AcDbLine
 10
65.445062
 20
10.7123710000001
 30
0.0
 11
65.55165699999998
 21
10.6125550000001
 31
0.0
  0
LINE
  5
7121
330
A
100
AcDbEntity
  8
0
  6
Continuous
 62
     7
100
AcDbLine
 10
65.55165699999998
 20
10.6125550000001
 30
0.0
 11
65.64345199999968
 21
10.4987900000001
 31
0.0
  0
LINE
  5
7122
330
A
100
AcDbEntity
  8
0
  6
Continuous
 62
     7
100
AcDbLine
 10
65.64345199999968
 20
10.4987900000001
 30
0.0
 11
65.71164299999975
 21
10.38331600000012
 31
0.0
  0
LINE
  5
7123
330
A
100
AcDbEntity
  8
0
  6
Continuous
 62
     7
100
AcDbLine
 10
65.71164299999975
 20
10.38331600000012
 30
0.0
 11
65.76062599999977
 21
10.26400000000012
 31
0.0
  0
LINE
  5
7124
330
A
100
AcDbEntity
  8
0
  6
Continuous
 62
     7
100
AcDbLine
 10
65.76062599999977
 20
10.26400000000012
 30
0.0
 11
65.79161199999998
 21
10.13933500000013
 31
0.0
  0
LINE
  5
7125
330
A
100
AcDbEntity
  8
0
  6
Continuous
 62
     7
100
AcDbLine
 10
65.79161199999998
 20
10.13933500000013
 30
0.0
 11
65.80255699999998
 21
10.0349710000001
 31
0.0
  0
LINE
  5
7126
330
A
100
AcDbEntity
  8
0
  6
Continuous
 62
     7
100
AcDbLine
 10
65.80255699999998
 20
10.0349710000001
 30
0.0
 11
65.80329299999971
 21
10.00000000000011
 31
0.0
  0
LINE
  5
7127
330
A
100
AcDbEntity
  8
0
  6
Continuous
 62
     7
100
AcDbLine
 10
65.80329299999971
 20
60.00000000000011
 30
0.0
 11
65.79355099999998
 21
59.87348900000012
 31
0.0
  0
LINE
  5
7128
330
A
100
AcDbEntity
  8
0
  6
Continuous
 62
     7
100
AcDbLine
 10
65.79355099999998
 20
59.87348900000012
 30
0.0
 11
65.76509199999998
 21
59.74956100000008
 31
0.0
  0
LINE
  5
7129
330
A
100
AcDbEntity
  8
0
  6
Continuous
 62
     7
100
AcDbLine
 10
65.76509199999998
 20
59.74956100000008
 30
0.0
 11
65.71905399999969
 21
59.63181000000014
 31
0.0
  0
LINE
  5
712A
330
A
100
AcDbEntity
  8
0
  6
Continuous
 62
     7
100
AcDbLine
 10
65.71905399999969
 20
59.63181000000014
 30
0.0
 11
65.65692599999977
 21
59.52129600000012
 31
0.0
  0
ARC
  5
712B
330
A
100
AcDbEntity
  8
0
  6
Continuous
 62
     7
100
AcDbCircle
 10
64.63543964869711
 20
60.25964045094645
 30
0.0
 40
1.260391563816972
100
AcDbArc
 50
268.0218507379081
 51
324.1400768113174
  0
LINE
  5
7B58
330
A
100
AcDbEntity
  8
0
  6
CENTER
 62
     1
100
AcDbLine
 10
63.0
 20
73.5
 30
0.0
 11
12.35920709430775
 21
73.5
 31
0.0
  0
LINE
  5
7B59
330
A
100
AcDbEntity
  8
0
  6
CENTER
 62
     1
100
AcDbLine
 10
-10.0
 20
0.0000000000002274
 30
0.0
 11
-10.0
 21
70.00000000000023
 31
0.0
  0
LINE
  5
7B5A
330
A
100
AcDbEntity
  8
0
  6
CENTER
 62
     1
100
AcDbLine
 10
-15.0
 20
70.00000000000023
 30
0.0
 11
15.0
 21
70.00000000000023
 31
0.0
  0
LINE
  5
7B5B
330
A
100
AcDbEntity
  8
0
  6
CENTER
 62
     1
100
AcDbLine
 10
0.0
 20
55.00000000000023
 30
0.0
 11
0.0
 21
85.0
 31
0.0
  0
LINE
  5
7B5C
330
A
100
AcDbEntity
  8
0
  6
CENTER
 62
     1
100
AcDbLine
 10
-15.0
 20
0.0000000000002274
 30
0.0
 11
15.0
 21
0.0000000000002274
 31
0.0
  0
LINE
  5
7B5D
330
A
100
AcDbEntity
  8
0
  6
CENTER
 62
     1
100
AcDbLine
 10
0.0
 20
-15.0
 30
0.0
 11
0.0
 21
15.0
 31
0.0
  0
ARC
  5
7B5E
330
A
100
AcDbEntity
  8
0
  6
CENTER
 62
     1
100
AcDbCircle
 10
0.0
 20
70.00000000000023
 30
0.0
 40
10.0
100
AcDbArc
 50
34.51810784106724
 51
180.0
  0
ARC
  5
7B5F
330
A
100
AcDbEntity
  8
0
  6
CENTER
 62
     1
100
AcDbCircle
 10
12.35920709430775
 20
78.5
 30
0.0
 40
5.0
100
AcDbArc
 50
214.5181078410672
 51
270.0
  0
LINE
  5
7B60
330
A
100
AcDbEntity
  8
0
  6
CENTER
 62
     1
100
AcDbLine
 10
63.0
 20
-3.499999999999772
 30
0.0
 11
12.35920709430775
 21
-3.499999999999772
 31
0.0
  0
ARC
  5
7B61
330
A
100
AcDbEntity
  8
0
  6
CENTER
 62
     1
100
AcDbCircle
 10
12.35920709430775
 20
-8.499999999999772
 30
0.0
 40
5.0
100
AcDbArc
 50
90.0
 51
145.4818921589327
  0
ARC
  5
7B62
330
A
100
AcDbEntity
  8
0
  6
CENTER
 62
     1
100
AcDbCircle
 10
0.0
 20
0.0000000000002274
 30
0.0
 40
10.0
100
AcDbArc
 50
180.0
 51
325.4818921589328
  0
LINE
  5
7B66
330
A
100
AcDbEntity
  8
0
  6
CENTER
 62
     1
100
AcDbLine
 10
-90.22359500000005
 20
35.00000000000011
 30
0.0
 11
-79.22359500000005
 21
35.00000000000011
 31
0.0
  0
LINE
  5
7B67
330
A
100
AcDbEntity
  8
0
  6
CENTER
 62
     1
100
AcDbLine
 10
-84.72359500000022
 20
29.50000000000012
 30
0.0
 11
-84.72359500000022
 21
40.50000000000011
 31
0.0
  0
LINE
  5
7B68
330
A
100
AcDbEntity
  8
0
  6
CENTER
 62
     1
100
AcDbLine
 10
-73.97359499999987
 20
35.00000000000011
 30
0.0
 11
-62.97359499999988
 21
35.00000000000011
 31
0.0
  0
LINE
  5
7B69
330
A
100
AcDbEntity
  8
0
  6
CENTER
 62
     1
100
AcDbLine
 10
-68.47359500000004
 20
29.50000000000012
 30
0.0
 11
-68.47359500000004
 21
40.50000000000011
 31
0.0
  0
ENDSEC
  0
SECTION
  2
OBJECTS
  0
DICTIONARY
  5
19
330
0
100
AcDbDictionary
281
     1
  3
ACAD_COLOR
350
3988
  3
ACAD_GROUP
350
1A
  3
ACAD_LAYOUT
350
1E
  3
ACAD_MATERIAL
350
395E
  3
ACAD_MLEADERSTYLE
350
39AD
  3
ACAD_MLINESTYLE
350
1B
  3
ACAD_PLOTSETTINGS
350
22
  3
ACAD_PLOTSTYLENAME
350
1F
  3
ACAD_SCALELIST
350
398B
  3
ACAD_TABLESTYLE
350
3989
  3
ACAD_VISUALSTYLE
350
3977
  3
ACAD_WIPEOUT_VARS
350
23
  3
ACDB_RECOMPOSE_DATA
350
72EC
  3
AcDbVariableDictionary
350
72CB
  3
ASE_INDEX_DICTIONARY
350
72C6
  3
DWGPROPS
350
7B80
  0
DICTIONARY
  5
72C9
330
14
100
AcDbDictionary
280
     1
281
     1
  3
ADSK_XREC_LAYER_RECONCILED
360
72CA
  0
DICTIONARY
  5
39B7
330
A
100
AcDbDictionary
280
     1
281
     1
  3
ACAD_SORTENTS
360
39B8
  0
DICTIONARY
  5
3988
102
{ACAD_REACTORS
330
19
102
}
330
19
100
AcDbDictionary
281
     1
  0
DICTIONARY
  5
1A
102
{ACAD_REACTORS
330
19
102
}
330
19
100
AcDbDictionary
281
     1
  0
DICTIONARY
  5
1E
102
{ACAD_REACTORS
330
19
102
}
330
19
100
AcDbDictionary
281
     1
  3
Layout1
350
21
  3
Model
350
20
  0
DICTIONARY
  5
395E
102
{ACAD_REACTORS
330
19
102
}
330
19
100
AcDbDictionary
281
     1
  3
ByBlock
350
3967
  3
ByLayer
350
395F
  3
Global
350
396F
  0
DICTIONARY
  5
39AD
102
{ACAD_REACTORS
330
19
102
}
330
19
100
AcDbDictionary
281
     1
  3
Standard
350
39AE
  0
DICTIONARY
  5
1B
102
{ACAD_REACTORS
330
19
102
}
330
19
100
AcDbDictionary
281
     1
  3
Standard
350
1C
  0
DICTIONARY
  5
22
102
{ACAD_REACTORS
330
19
102
}
330
19
100
AcDbDictionary
281
     1
  0
ACDBDICTIONARYWDFLT
  5
1F
102
{ACAD_REACTORS
330
19
102
}
330
19
100
AcDbDictionary
281
     1
  3
Normal
350
1D
100
AcDbDictionaryWithDefault
340
1D
  0
DICTIONARY
  5
398B
102
{ACAD_REACTORS
330
19
102
}
330
19
100
AcDbDictionary
281
     1
  3
A0
350
398C
  3
A1
350
398D
  3
A2
350
398E
  3
A3
350
398F
  3
A4
350
3990
  3
A5
350
3991
  3
A6
350
3992
  3
A7
350
3993
  3
A8
350
3994
  3
A9
350
3995
  3
B0
350
3996
  3
B1
350
3997
  3
B2
350
3998
  3
B3
350
3999
  3
B4
350
399A
  3
B5
350
399B
  3
B6
350
399C
  3
B7
350
399D
  3
B8
350
399E
  3
B9
350
399F
  3
C0
350
39A0
  3
C1
350
39A1
  3
C2
350
39A2
  3
C3
350
39A3
  3
C4
350
39A4
  3
C5
350
39A5
  3
C6
350
39A6
  3
C7
350
39A7
  3
C8
350
39A8
  3
C9
350
39A9
  3
D0
350
39AA
  3
D1
350
39AB
  3
D2
350
39AC
  0
DICTIONARY
  5
3989
102
{ACAD_REACTORS
330
19
102
}
330
19
100
AcDbDictionary
281
     1
  3
Standard
350
398A
  0
DICTIONARY
  5
3977
102
{ACAD_REACTORS
330
19
102
}
330
19
100
AcDbDictionary
281
     1
  3
2dWireframe
350
397D
  3
3D Hidden
350
397F
  3
3dWireframe
350
397E
  3
Basic
350
397C
  3
Brighten
350
3983
  3
ColorChange
350
3987
  3
Conceptual
350
3980
  3
Dim
350
3982
  3
Facepattern
350
3986
  3
Flat
350
3978
  3
FlatWithEdges
350
3979
  3
Gouraud
350
397A
  3
GouraudWithEdges
350
397B
  3
Linepattern
350
3985
  3
Realistic
350
3981
  3
Thicken
350
3984
  0
WIPEOUTVARIABLES
  5
23
330
19
100
AcDbWipeoutVariables
 70
     1
  0
XRECORD
  5
72EC
102
{ACAD_REACTORS
330
19
102
}
330
19
100
AcDbXrecord
280
     1
 90
        1
330
398A
  0
DICTIONARY
  5
72CB
102
{ACAD_REACTORS
330
19
102
}
330
19
100
AcDbDictionary
281
     1
  3
CANNOSCALE
350
72CE
  3
CMLEADERSTYLE
350
72CD
  3
CTABLESTYLE
350
72CC
  3
DIMASSOC
350
72D1
  3
INDEXCTL
350
72D0
  3
SORTENTS
350
72CF
  0
DICTIONARY
  5
72C6
102
{ACAD_REACTORS
330
19
102
}
330
19
100
AcDbDictionary
281
     1
  3
ASEBlockHierarchyIndexRecord
350
72C8
1001
DCO15
1040
1687090590.691
  0
XRECORD
  5
7B80
102
{ACAD_REACTORS
330
19
102
}
330
19
100
AcDbXrecord
280
     1
  1
DWGPROPS COOKIE
  2

  3

  4

  6

  7

  8
renzo.ceresoli
  9

300
=
301
=
302
=
303
=
304
=
305
=
306
=
307
=
308
=
309
=
 40
0.0274374074074074
 41
2455329.702198484
 42
2455383.393783727
  1

 90
        0
  0
XRECORD
  5
72CA
102
{ACAD_REACTORS
330
72C9
102
}
330
72C9
100
AcDbXrecord
280
     1
290
     1
  0
SORTENTSTABLE
  5
39B8
102
{ACAD_REACTORS
330
39B7
102
}
330
39B7
100
AcDbSortentsTable
330
A
331
4F3D
  5
5A64
331
4F78
  5
594D
331
4FA3
  5
5978
331
51E6
  5
571F
331
5211
  5
574A
331
50CD
  5
57AD
331
5100
  5
57E0
331
5132
  5
5812
331
4FF6
  5
591B
331
5021
  5
585E
331
4E52
  5
59B9
331
4EE8
  5
5A0F
331
4F42
  5
5A69
331
51B0
  5
56FE
331
51EB
  5
5724
331
5074
  5
58B1
331
509F
  5
5772
331
50D2
  5
57B2
331
4F9D
  5
5972
331
4FC8
  5
58ED
331
4E24
  5
598B
331
5124
  5
5804
331
5157
  5
5837
331
5182
  5
56E1
331
5046
  5
5883
331
5079
  5
58B6
331
4EDA
  5
5A01
331
4F0D
  5
5A34
331
4F34
  5
5A5B
331
4F6F
  5
5944
331
51DD
  5
5716
331
5208
  5
5741
331
50C4
  5
57A4
331
50F7
  5
57D7
331
5129
  5
5809
331
4FBA
  5
58DF
331
4FED
  5
5912
331
5018
  5
593D
331
4E16
  5
597D
331
4E49
  5
59B0
331
4E74
  5
59DB
331
517C
  5
56DB
331
506B
  5
58A8
331
5096
  5
5769
331
4EFF
  5
5A26
331
4F61
  5
5A77
331
4F94
  5
5969
331
4E1B
  5
5982
331
50E9
  5
57C9
331
511B
  5
57FB
331
514E
  5
582E
331
4FDF
  5
5904
331
5012
  5
5937
331
503D
  5
587A
331
4E6E
  5
59D5
331
4ED1
  5
59F8
331
4F2B
  5
5A52
331
51D4
  5
570D
331
50BB
  5
579B
331
4F86
  5
595B
331
4FB1
  5
58D6
331
4FE4
  5
5909
331
4E40
  5
59A7
331
521F
  5
5758
331
5140
  5
5820
331
5173
  5
5853
331
502F
  5
586C
331
5062
  5
589F
331
4EC3
  5
59EA
331
4EF6
  5
5A1D
331
2409
  5
5A8B
331
4F50
  5
5A6E
331
4F8B
  5
5960
331
51BE
  5
5702
331
51F9
  5
5732
331
5224
  5
575D
331
50AD
  5
578D
331
50E0
  5
57C0
331
5112
  5
57F2
331
4FD6
  5
58FB
331
5009
  5
592E
331
4E32
  5
5999
331
4E65
  5
59CC
331
4EC8
  5
59EF
331
4F22
  5
5A49
331
5165
  5
5845
331
5190
  5
56EF
331
51C3
  5
5707
331
5054
  5
5891
331
5087
  5
58C4
331
50B2
  5
5792
331
4F1B
  5
5A42
331
4F7D
  5
5952
331
4FA8
  5
58CD
331
5216
  5
574F
331
5105
  5
57E5
331
5137
  5
5817
331
516A
  5
584A
331
4FFB
  5
5920
331
5026
  5
5863
331
5059
  5
5896
331
4E57
  5
59BE
331
4E9A
  5
59E5
331
4EED
  5
5A14
331
51F0
  5
5729
331
50A4
  5
577C
331
50D7
  5
57B7
331
5109
  5
57E9
331
4FCD
  5
58F2
331
5000
  5
5925
331
4E29
  5
5990
331
4E5C
  5
59C3
331
515C
  5
583C
331
5187
  5
56E6
331
504B
  5
5888
331
507E
  5
58BB
331
4EDF
  5
5A06
331
4F12
  5
5A39
331
4F39
  5
5A60
331
4F74
  5
5949
331
51E2
  5
571B
331
520D
  5
5746
331
50C9
  5
57A9
331
50FC
  5
57DC
331
512E
  5
580E
331
4FBF
  5
58E4
331
4FF2
  5
5917
331
501D
  5
585A
331
4E4E
  5
59B5
331
4E79
  5
59E0
331
51AC
  5
56FA
331
5070
  5
58AD
331
509B
  5
576E
331
4F04
  5
5A2B
331
4F66
  5
5A7C
331
4F99
  5
596E
331
4FC4
  5
58E9
331
4E20
  5
5987
331
50EE
  5
57CE
331
5120
  5
5800
331
5153
  5
5833
331
5017
  5
593C
331
5042
  5
587F
331
4ED6
  5
59FD
331
4F09
  5
5A30
331
4F30
  5
5A57
331
4F6B
  5
5940
331
51D9
  5
5712
331
5204
  5
573D
331
50C0
  5
57A0
331
50F3
  5
57D3
331
4FB6
  5
58DB
331
4FE9
  5
590E
331
4E45
  5
59AC
331
4E70
  5
59D7
331
5145
  5
5825
331
5178
  5
56D7
331
5034
  5
5871
331
5067
  5
58A4
331
5092
  5
5765
331
4EFB
  5
5A22
331
240E
  5
5A90
331
4F55
  5
5A73
331
4F90
  5
5965
331
51FE
  5
5737
331
50E5
  5
57C5
331
5117
  5
57F7
331
514A
  5
582A
331
4FDB
  5
5900
331
500E
  5
5933
331
5039
  5
5876
331
4E37
  5
599E
331
4E6A
  5
59D1
331
4ECD
  5
59F4
331
4F27
  5
5A4E
331
5195
  5
56F4
331
51D0
  5
5709
331
508C
  5
58C9
331
50B7
  5
5797
331
4F82
  5
5957
331
4FAD
  5
58D2
331
4FE0
  5
5905
331
4E3C
  5
59A3
331
521B
  5
5754
331
513C
  5
581C
331
516F
  5
584F
331
502B
  5
5868
331
505E
  5
589B
331
4EF2
  5
5A19
331
2405
  5
5A87
331
51F5
  5
572E
331
5220
  5
5759
331
50A9
  5
5781
331
50DC
  5
57BC
331
510E
  5
57EE
331
4FD2
  5
58F7
331
5005
  5
592A
331
4E2E
  5
5995
331
4E61
  5
59C8
331
5161
  5
5841
331
518C
  5
56EB
331
5050
  5
588D
331
5083
  5
58C0
331
4EE4
  5
5A0B
331
4F17
  5
5A3E
331
4F3E
  5
5A65
331
4F79
  5
594E
331
4FA4
  5
5979
331
51E7
  5
5720
331
5212
  5
574B
331
50CE
  5
57AE
331
5101
  5
57E1
331
5133
  5
5813
331
4FF7
  5
591C
331
5022
  5
585F
331
4E53
  5
59BA
331
4EE9
  5
5A10
331
51B1
  5
56FF
331
51EC
  5
5725
331
5075
  5
58B2
331
50A0
  5
5778
331
50D3
  5
57B3
331
4F9E
  5
5973
331
4FC9
  5
58EE
331
4E25
  5
598C
331
4E58
  5
59BF
331
5125
  5
5805
331
5158
  5
5838
331
5183
  5
56E2
331
5047
  5
5884
331
507A
  5
58B7
331
4EDB
  5
5A02
331
4F0E
  5
5A35
331
4F35
  5
5A5C
331
4F70
  5
5945
331
51DE
  5
5717
331
5209
  5
5742
331
50C5
  5
57A5
331
50F8
  5
57D8
331
512A
  5
580A
331
4FBB
  5
58E0
331
4FEE
  5
5913
331
5019
  5
593E
331
4E17
  5
597E
331
4E4A
  5
59B1
331
4E75
  5
59DC
331
517D
  5
56DC
331
506C
  5
58A9
331
5097
  5
576A
331
4F00
  5
5A27
331
4F62
  5
5A78
331
4F95
  5
596A
331
4FC0
  5
58E5
331
4E1C
  5
5983
331
50EA
  5
57CA
331
511C
  5
57FC
331
514F
  5
582F
331
5013
  5
5938
331
503E
  5
587B
331
4E6F
  5
59D6
331
4ED2
  5
59F9
331
4F2C
  5
5A53
331
51D5
  5
570E
331
5200
  5
5739
331
50BC
  5
579C
331
4F87
  5
595C
331
4FB2
  5
58D7
331
4FE5
  5
590A
331
4E41
  5
59A8
331
5141
  5
5821
331
5174
  5
5854
331
5030
  5
586D
331
5063
  5
58A0
331
4EC4
  5
59EB
331
4EF7
  5
5A1E
331
240A
  5
5A8C
331
4F51
  5
5A6F
331
4F8C
  5
5961
331
51BF
  5
5703
331
51FA
  5
5733
331
5225
  5
575E
331
50AE
  5
578E
331
50E1
  5
57C1
331
5113
  5
57F3
331
4FD7
  5
58FC
331
500A
  5
592F
331
4E33
  5
599A
331
4E66
  5
59CD
331
4EC9
  5
59F0
331
4F23
  5
5A4A
331
5166
  5
5846
331
5191
  5
56F0
331
5055
  5
5892
331
5088
  5
58C5
331
50B3
  5
5793
331
4F1C
  5
5A43
331
4F7E
  5
5953
331
4FA9
  5
58CE
331
4E38
  5
599F
331
5217
  5
5750
331
5106
  5
57E6
331
5138
  5
5818
331
516B
  5
584B
331
4FFC
  5
5921
331
5027
  5
5864
331
505A
  5
5897
331
4E9B
  5
59E6
331
4EEE
  5
5A15
331
51F1
  5
572A
331
50A5
  5
577D
331
50D8
  5
57B8
331
510A
  5
57EA
331
4FCE
  5
58F3
331
5001
  5
5926
331
4E2A
  5
5991
331
4E5D
  5
59C4
331
515D
  5
583D
331
5188
  5
56E7
331
504C
  5
5889
331
507F
  5
58BC
331
4EE0
  5
5A07
331
4F13
  5
5A3A
331
4F3A
  5
5A61
331
4F75
  5
594A
331
4FA0
  5
5975
331
51E3
  5
571C
331
520E
  5
5747
331
50CA
  5
57AA
331
50FD
  5
57DD
331
512F
  5
580F
331
4FF3
  5
5918
331
501E
  5
585B
331
4E4F
  5
59B6
331
4E7A
  5
59E1
331
51AD
  5
56FB
331
51E8
  5
5721
331
5071
  5
58AE
331
509C
  5
576F
331
4F05
  5
5A2C
331
4F67
  5
5A7D
331
4F9A
  5
596F
331
4FC5
  5
58EA
331
4E21
  5
5988
331
50EF
  5
57CF
331
5121
  5
5801
331
5154
  5
5834
331
5043
  5
5880
331
4ED7
  5
59FE
331
4F0A
  5
5A31
331
4F31
  5
5A58
331
4F6C
  5
5941
331
519F
  5
56F7
331
51DA
  5
5713
331
5205
  5
573E
331
50C1
  5
57A1
331
50F4
  5
57D4
331
4FB7
  5
58DC
331
4FEA
  5
590F
331
4E46
  5
59AD
331
4E71
  5
59D8
331
5146
  5
5826
331
5179
  5
56D8
331
5035
  5
5872
331
5068
  5
58A5
331
5093
  5
5766
331
4EFC
  5
5A23
331
240F
  5
5A91
331
4F56
  5
5A74
331
4F91
  5
5966
331
4E18
  5
597F
331
51FF
  5
5738
331
50E6
  5
57C6
331
5118
  5
57F8
331
514B
  5
582B
331
4FDC
  5
5901
331
500F
  5
5934
331
503A
  5
5877
331
4E6B
  5
59D2
331
4ECE
  5
59F5
331
4F28
  5
5A4F
331
5196
  5
56F5
331
51D1
  5
570A
331
508D
  5
58CA
331
50B8
  5
5798
331
4F83
  5
5958
331
4FAE
  5
58D3
331
4FE1
  5
5906
331
4E3D
  5
59A4
331
521C
  5
5755
331
513D
  5
581D
331
5170
  5
5850
331
502C
  5
5869
331
505F
  5
589C
331
4EF3
  5
5A1A
331
2406
  5
5A88
331
4F4D
  5
5A6B
331
4F88
  5
595D
331
51F6
  5
572F
331
5221
  5
575A
331
50AA
  5
5782
331
50DD
  5
57BD
331
510F
  5
57EF
331
4FD3
  5
58F8
331
5006
  5
592B
331
4E2F
  5
5996
331
4E62
  5
59C9
331
5162
  5
5842
331
518D
  5
56EC
331
51C0
  5
5704
331
5051
  5
588E
331
5084
  5
58C1
331
4EE5
  5
5A0C
331
4F18
  5
5A3F
331
4F3F
  5
5A66
331
4F7A
  5
594F
331
4FA5
  5
597A
331
5213
  5
574C
331
50CF
  5
57AF
331
5102
  5
57E2
331
5134
  5
5814
331
4FF8
  5
591D
331
5023
  5
5860
331
4E54
  5
59BB
331
4EEA
  5
5A11
331
51ED
  5
5726
331
5076
  5
58B3
331
50A1
  5
5779
331
50D4
  5
57B4
331
4F9F
  5
5974
331
4FCA
  5
58EF
331
4E26
  5
598D
331
4E59
  5
59C0
331
5126
  5
5806
331
5159
  5
5839
331
5184
  5
56E3
331
5048
  5
5885
331
507B
  5
58B8
331
4EDC
  5
5A03
331
4F0F
  5
5A36
331
4F36
  5
5A5D
331
4F71
  5
5946
331
51DF
  5
5718
331
520A
  5
5743
331
50C6
  5
57A6
331
50F9
  5
57D9
331
512B
  5
580B
331
4FBC
  5
58E1
331
4FEF
  5
5914
331
501A
  5
593F
331
4E4B
  5
59B2
331
4E76
  5
59DD
331
517E
  5
56DD
331
506D
  5
58AA
331
5098
  5
576B
331
4F01
  5
5A28
331
4F63
  5
5A79
331
4F96
  5
596B
331
4FC1
  5
58E6
331
4E1D
  5
5984
331
50EB
  5
57CB
331
511D
  5
57FD
331
5150
  5
5830
331
5014
  5
5939
331
503F
  5
587C
331
4ED3
  5
59FA
331
4F2D
  5
5A54
331
4F68
  5
5A7E
331
51D6
  5
570F
331
5201
  5
573A
331
50BD
  5
579D
331
50F0
  5
57D0
331
4FB3
  5
58D8
331
4FE6
  5
590B
331
4E42
  5
59A9
331
5142
  5
5822
331
5175
  5
5855
331
51A0
  5
56F8
331
5031
  5
586E
331
5064
  5
58A1
331
4EC5
  5
59EC
331
4EF8
  5
5A1F
331
240B
  5
5A8D
331
4F52
  5
5A70
331
4F8D
  5
5962
331
51FB
  5
5734
331
5226
  5
575F
331
50AF
  5
578F
331
50E2
  5
57C2
331
5114
  5
57F4
331
4FD8
  5
58FD
331
500B
  5
5930
331
4E34
  5
599B
331
4E67
  5
59CE
331
4ECA
  5
59F1
331
2410
  5
5A92
331
4F24
  5
5A4B
331
5167
  5
5847
331
5192
  5
56F1
331
5056
  5
5893
331
5089
  5
58C6
331
50B4
  5
5794
331
4F1D
  5
5A44
331
4F7F
  5
5954
331
4FAA
  5
58CF
331
4E39
  5
59A0
331
5218
  5
5751
331
5107
  5
57E7
331
5139
  5
5819
331
516C
  5
584C
331
4FFD
  5
5922
331
5028
  5
5865
331
505B
  5
5898
331
4E9C
  5
59E7
331
4EEF
  5
5A16
331
51F2
  5
572B
331
50A6
  5
577E
331
50D9
  5
57B9
331
510B
  5
57EB
331
4FCF
  5
58F4
331
5002
  5
5927
331
4E2B
  5
5992
331
4E5E
  5
59C5
331
515E
  5
583E
331
5189
  5
56E8
331
504D
  5
588A
331
5080
  5
58BD
331
4EE1
  5
5A08
331
4F14
  5
5A3B
331
4F3B
  5
5A62
331
4F76
  5
594B
331
4FA1
  5
5976
331
51E4
  5
571D
331
520F
  5
5748
331
50CB
  5
57AB
331
50FE
  5
57DE
331
5130
  5
5810
331
4FF4
  5
5919
331
501F
  5
585C
331
4E50
  5
59B7
331
4E7B
  5
59E2
331
4F40
  5
5A67
331
51AE
  5
56FC
331
51E9
  5
5722
331
5072
  5
58AF
331
509D
  5
5770
331
50D0
  5
57B0
331
4F06
  5
5A2D
331
4F9B
  5
5970
331
4FC6
  5
58EB
331
4E22
  5
5989
331
5122
  5
5802
331
5155
  5
5835
331
5180
  5
56DF
331
5044
  5
5881
331
4ED8
  5
59FF
331
4F0B
  5
5A32
331
4F32
  5
5A59
331
4F6D
  5
5942
331
51DB
  5
5714
331
5206
  5
573F
331
50C2
  5
57A2
331
50F5
  5
57D5
331
4FB8
  5
58DD
331
4FEB
  5
5910
331
4E14
  5
597B
331
4E47
  5
59AE
331
4E72
  5
59D9
331
5147
  5
5827
331
517A
  5
56D9
331
5036
  5
5873
331
5069
  5
58A6
331
5094
  5
5767
331
4EFD
  5
5A24
331
4F57
  5
5A75
331
4F92
  5
5967
331
4E19
  5
5980
331
50E7
  5
57C7
331
5119
  5
57F9
331
514C
  5
582C
331
4FDD
  5
5902
331
5010
  5
5935
331
503B
  5
5878
331
4E6C
  5
59D3
331
4ECF
  5
59F6
331
4F29
  5
5A50
331
51D2
  5
570B
331
508E
  5
5761
331
50B9
  5
5799
331
4F84
  5
5959
331
4FAF
  5
58D4
331
4FE2
  5
5907
331
4E3E
  5
59A5
331
521D
  5
5756
331
513E
  5
581E
331
5171
  5
5851
331
502D
  5
586A
331
5060
  5
589D
331
4EF4
  5
5A1B
331
2407
  5
5A89
331
4F4E
  5
5A6C
331
4F89
  5
595E
331
51F7
  5
5730
331
5222
  5
575B
331
50AB
  5
5783
331
50DE
  5
57BE
331
5110
  5
57F0
331
4FD4
  5
58F9
331
5007
  5
592C
331
4E30
  5
5997
331
4E63
  5
59CA
331
4F20
  5
5A47
331
5163
  5
5843
331
518E
  5
56ED
331
51C1
  5
5705
331
5052
  5
588F
331
5085
  5
58C2
331
50B0
  5
5790
331
4EE6
  5
5A0D
331
4F19
  5
5A40
331
4F7B
  5
5950
331
4FA6
  5
58CB
331
5214
  5
574D
331
5103
  5
57E3
331
5135
  5
5815
331
5168
  5
5848
331
4FF9
  5
591E
331
5024
  5
5861
331
4E55
  5
59BC
331
4EEB
  5
5A12
331
51EE
  5
5727
331
5077
  5
58B4
331
50A2
  5
577A
331
50D5
  5
57B5
331
4FCB
  5
58F0
331
4E27
  5
598E
331
4E5A
  5
59C1
331
5127
  5
5807
331
515A
  5
583A
331
5185
  5
56E4
331
5049
  5
5886
331
507C
  5
58B9
331
4EDD
  5
5A04
331
4F10
  5
5A37
331
4F37
  5
5A5E
331
4F72
  5
5947
331
51E0
  5
5719
331
520B
  5
5744
331
50C7
  5
57A7
331
50FA
  5
57DA
331
512C
  5
580C
331
4FBD
  5
58E2
331
4FF0
  5
5915
331
501B
  5
5858
331
4E4C
  5
59B3
331
4E77
  5
59DE
331
517F
  5
56DE
331
506E
  5
58AB
331
5099
  5
576C
331
4F02
  5
5A29
331
4F64
  5
5A7A
331
4F97
  5
596C
331
4FC2
  5
58E7
331
4E1E
  5
5985
331
50EC
  5
57CC
331
511E
  5
57FE
331
5151
  5
5831
331
5015
  5
593A
331
5040
  5
587D
331
4ED4
  5
59FB
331
4F2E
  5
5A55
331
4F69
  5
5A7F
331
51D7
  5
5710
331
5202
  5
573B
331
50BE
  5
579E
331
50F1
  5
57D1
331
4FB4
  5
58D9
331
4FE7
  5
590C
331
4E43
  5
59AA
331
5143
  5
5823
331
5176
  5
5856
331
5032
  5
586F
331
5065
  5
58A2
331
5090
  5
5763
331
4EC6
  5
59ED
331
4EF9
  5
5A20
331
240C
  5
5A8E
331
4F53
  5
5A71
331
4F8E
  5
5963
331
51FC
  5
5735
331
5227
  5
5760
331
50E3
  5
57C3
331
5115
  5
57F5
331
5148
  5
5828
331
4FD9
  5
58FE
331
500C
  5
5931
331
4E35
  5
599C
331
4E68
  5
59CF
331
4ECB
  5
59F2
331
2411
  5
5A93
331
4F25
  5
5A4C
331
5193
  5
56F2
331
5057
  5
5894
331
508A
  5
58C7
331
50B5
  5
5795
331
4F1E
  5
5A45
331
4F80
  5
5955
331
4FAB
  5
58D0
331
4E3A
  5
59A1
331
5219
  5
5752
331
513A
  5
581A
331
516D
  5
584D
331
4FFE
  5
5923
331
5029
  5
5866
331
505C
  5
5899
331
4EF0
  5
5A17
331
2403
  5
5A85
331
51F3
  5
572C
331
50A7
  5
577F
331
50DA
  5
57BA
331
510C
  5
57EC
331
4FD0
  5
58F5
331
5003
  5
5928
331
4E2C
  5
5993
331
4E5F
  5
59C6
331
515F
  5
583F
331
518A
  5
56E9
331
504E
  5
588B
331
5081
  5
58BE
331
4EE2
  5
5A09
331
4F15
  5
5A3C
331
4F3C
  5
5A63
331
4F77
  5
594C
331
4FA2
  5
5977
331
51E5
  5
571E
331
5210
  5
5749
331
50CC
  5
57AC
331
50FF
  5
57DF
331
5131
  5
5811
331
4FF5
  5
591A
331
5020
  5
585D
331
4E51
  5
59B8
331
4F41
  5
5A68
331
51AF
  5
56FD
331
51EA
  5
5723
331
5073
  5
58B0
331
509E
  5
5771
331
50D1
  5
57B1
331
4F07
  5
5A2E
331
4F9C
  5
5971
331
4FC7
  5
58EC
331
4E23
  5
598A
331
5123
  5
5803
331
5156
  5
5836
331
5181
  5
56E0
331
5045
  5
5882
331
5078
  5
58B5
331
4ED9
  5
5A00
331
4F0C
  5
5A33
331
4F33
  5
5A5A
331
4F6E
  5
5943
331
51DC
  5
5715
331
5207
  5
5740
331
50C3
  5
57A3
331
50F6
  5
57D6
331
5128
  5
5808
331
4FB9
  5
58DE
331
4FEC
  5
5911
331
4E15
  5
597C
331
4E48
  5
59AF
331
4E73
  5
59DA
331
517B
  5
56DA
331
5037
  5
5874
331
506A
  5
58A7
331
5095
  5
5768
331
4EFE
  5
5A25
331
4F93
  5
5968
331
4E1A
  5
5981
331
50E8
  5
57C8
331
511A
  5
57FA
331
514D
  5
582D
331
4FDE
  5
5903
331
5011
  5
5936
331
503C
  5
5879
331
4E6D
  5
59D4
331
4ED0
  5
59F7
331
4F2A
  5
5A51
331
51D3
  5
570C
331
508F
  5
5762
331
50BA
  5
579A
331
4F85
  5
595A
331
4FB0
  5
58D5
331
4FE3
  5
5908
331
4E3F
  5
59A6
331
521E
  5
5757
331
513F
  5
581F
331
5172
  5
5852
331
502E
  5
586B
331
5061
  5
589E
331
4EC2
  5
59E9
331
4EF5
  5
5A1C
331
2408
  5
5A8A
331
4F4F
  5
5A6D
331
4F8A
  5
595F
331
51BD
  5
5701
331
51F8
  5
5731
331
5223
  5
575C
331
50AC
  5
5784
331
50DF
  5
57BF
331
5111
  5
57F1
331
4FD5
  5
58FA
331
5008
  5
592D
331
4E31
  5
5998
331
4E64
  5
59CB
331
4F21
  5
5A48
331
5164
  5
5844
331
518F
  5
56EE
331
51C2
  5
5706
331
5053
  5
5890
331
5086
  5
58C3
331
50B1
  5
5791
331
4EE7
  5
5A0E
331
4F1A
  5
5A41
331
4F7C
  5
5951
331
4FA7
  5
58CC
331
5215
  5
574E
331
5104
  5
57E4
331
5136
  5
5816
331
5169
  5
5849
331
4FFA
  5
591F
331
5025
  5
5862
331
5058
  5
5895
331
4E56
  5
59BD
331
4E99
  5
59E4
331
4EEC
  5
5A13
331
51EF
  5
5728
331
50A3
  5
577B
331
50D6
  5
57B6
331
5108
  5
57E8
331
4FCC
  5
58F1
331
4E28
  5
598F
331
4E5B
  5
59C2
331
515B
  5
583B
331
5186
  5
56E5
331
504A
  5
5887
331
507D
  5
58BA
331
4EDE
  5
5A05
331
4F11
  5
5A38
331
4F38
  5
5A5F
331
4F73
  5
5948
331
51E1
  5
571A
331
520C
  5
5745
331
50C8
  5
57A8
331
50FB
  5
57DB
331
512D
  5
580D
331
4FBE
  5
58E3
331
4FF1
  5
5916
331
501C
  5
5859
331
4E4D
  5
59B4
331
4E78
  5
59DF
331
506F
  5
58AC
331
509A
  5
576D
331
4F03
  5
5A2A
331
4F65
  5
5A7B
331
4F98
  5
596D
331
4FC3
  5
58E8
331
4E1F
  5
5986
331
50ED
  5
57CD
331
511F
  5
57FF
331
5152
  5
5832
331
5016
  5
593B
331
5041
  5
587E
331
4ED5
  5
59FC
331
4F08
  5
5A2F
331
4F2F
  5
5A56
331
4F6A
  5
5A80
331
51D8
  5
5711
331
5203
  5
573C
331
50BF
  5
579F
331
50F2
  5
57D2
331
4FB5
  5
58DA
331
4FE8
  5
590D
331
4E44
  5
59AB
331
5144
  5
5824
331
5177
  5
5857
331
5033
  5
5870
331
5066
  5
58A3
331
5091
  5
5764
331
4EC7
  5
59EE
331
4EFA
  5
5A21
331
240D
  5
5A8F
331
4F54
  5
5A72
331
4F8F
  5
5964
331
51FD
  5
5736
331
50E4
  5
57C4
331
5116
  5
57F6
331
5149
  5
5829
331
4FDA
  5
58FF
331
500D
  5
5932
331
5038
  5
5875
331
4E36
  5
599D
331
4E69
  5
59D0
331
4ECC
  5
59F3
331
2412
  5
5A94
331
4F26
  5
5A4D
331
5194
  5
56F3
331
508B
  5
58C8
331
50B6
  5
5796
331
4F1F
  5
5A46
331
4F81
  5
5956
331
4FAC
  5
58D1
331
4E3B
  5
59A2
331
521A
  5
5753
331
513B
  5
581B
331
516E
  5
584E
331
4FFF
  5
5924
331
502A
  5
5867
331
505D
  5
589A
331
4EF1
  5
5A18
331
2404
  5
5A86
331
51F4
  5
572D
331
50A8
  5
5780
331
50DB
  5
57BB
331
510D
  5
57ED
331
4FD1
  5
58F6
331
5004
  5
5929
331
4E2D
  5
5994
331
4E60
  5
59C7
331
5160
  5
5840
331
518B
  5
56EA
331
504F
  5
588C
331
5082
  5
58BF
331
4EE3
  5
5A0A
331
4F16
  5
5A3D
  0
LAYOUT
  5
21
102
{ACAD_XDICTIONARY
360
7B83
102
}
102
{ACAD_REACTORS
330
1E
102
}
330
1E
100
AcDbPlotSettings
  1

  2

  4

  6

 40
0.0
 41
0.0
 42
0.0
 43
0.0
 44
0.0
 45
0.0
 46
0.0
 47
0.0
 48
0.0
 49
0.0
140
0.0
141
0.0
142
1.0
143
1.0
 70
     0
 72
     0
 73
     0
 74
     0
  7

 75
     0
147
1.0
148
0.0
149
0.0
100
AcDbLayout
  1
Layout1
 70
     0
 71
     1
 10
0.0
 20
0.0
 11
12.0
 21
9.0
 12
0.0
 22
0.0
 32
0.0
 14
1.000000000000000E+20
 24
1.000000000000000E+20
 34
1.000000000000000E+20
 15
-1.000000000000000E+20
 25
-1.000000000000000E+20
 35
-1.000000000000000E+20
146
0.0
 13
0.0
 23
0.0
 33
0.0
 16
1.0
 26
0.0
 36
0.0
 17
0.0
 27
1.0
 37
0.0
 76
     0
330
B
  0
LAYOUT
  5
20
102
{ACAD_XDICTIONARY
360
7B81
102
}
102
{ACAD_REACTORS
330
1E
102
}
330
1E
100
AcDbPlotSettings
  1

  2

  4

  6

 40
0.0
 41
0.0
 42
0.0
 43
0.0
 44
0.0
 45
0.0
 46
0.0
 47
0.0
 48
0.0
 49
0.0
140
0.0
141
0.0
142
1.0
143
1.0
 70
  1024
 72
     0
 73
     0
 74
     0
  7

 75
     0
147
1.0
148
0.0
149
0.0
100
AcDbLayout
  1
Model
 70
     0
 71
     0
 10
0.0
 20
0.0
 11
0.0
 21
0.0
 12
0.0
 22
0.0
 32
0.0
 14
0.0
 24
0.0
 34
0.0
 15
0.0
 25
0.0
 35
0.0
146
0.0
 13
0.0
 23
0.0
 33
0.0
 16
0.0
 26
0.0
 36
0.0
 17
0.0
 27
0.0
 37
0.0
 76
     0
330
A
331
15
  0
MATERIAL
  5
3967
102
{ACAD_XDICTIONARY
360
3968
102
}
102
{ACAD_REACTORS
330
395E
102
}
330
395E
100
AcDbMaterial
  1
ByBlock
 72
     0
 43
0.0208333333333333
 43
0.0
 43
0.0
 43
0.0
 43
0.0
 43
0.0208333333333333
 43
0.0
 43
0.0
 43
0.0
 43
0.0
 43
1.0
 43
0.0
 43
0.0
 43
0.0
 43
0.0
 43
1.0
 77
     0
 47
0.0208333333333333
 47
0.0
 47
0.0
 47
0.0
 47
0.0
 47
0.0208333333333333
 47
0.0
 47
0.0
 47
0.0
 47
0.0
 47
1.0
 47
0.0
 47
0.0
 47
0.0
 47
0.0
 47
1.0
171
     0
 49
0.0208333333333333
 49
0.0
 49
0.0
 49
0.0
 49
0.0
 49
0.0208333333333333
 49
0.0
 49
0.0
 49
0.0
 49
0.0
 49
1.0
 49
0.0
 49
0.0
 49
0.0
 49
0.0
 49
1.0
175
     0
142
0.0208333333333333
142
0.0
142
0.0
142
0.0
142
0.0
142
0.0208333333333333
142
0.0
142
0.0
142
0.0
142
0.0
142
1.0
142
0.0
142
0.0
142
0.0
142
0.0
142
1.0
179
     0
144
0.0208333333333333
144
0.0
144
0.0
144
0.0
144
0.0
144
0.0208333333333333
144
0.0
144
0.0
144
0.0
144
0.0
144
1.0
144
0.0
144
0.0
144
0.0
144
0.0
144
1.0
147
0.0208333333333333
147
0.0
147
0.0
147
0.0
147
0.0
147
0.0208333333333333
147
0.0
147
0.0
147
0.0
147
0.0
147
1.0
147
0.0
147
0.0
147
0.0
147
0.0
147
1.0
  0
MATERIAL
  5
395F
102
{ACAD_XDICTIONARY
360
3960
102
}
102
{ACAD_REACTORS
330
395E
102
}
330
395E
100
AcDbMaterial
  1
ByLayer
 72
     0
 43
0.0208333333333333
 43
0.0
 43
0.0
 43
0.0
 43
0.0
 43
0.0208333333333333
 43
0.0
 43
0.0
 43
0.0
 43
0.0
 43
1.0
 43
0.0
 43
0.0
 43
0.0
 43
0.0
 43
1.0
 77
     0
 47
0.0208333333333333
 47
0.0
 47
0.0
 47
0.0
 47
0.0
 47
0.0208333333333333
 47
0.0
 47
0.0
 47
0.0
 47
0.0
 47
1.0
 47
0.0
 47
0.0
 47
0.0
 47
0.0
 47
1.0
171
     0
 49
0.0208333333333333
 49
0.0
 49
0.0
 49
0.0
 49
0.0
 49
0.0208333333333333
 49
0.0
 49
0.0
 49
0.0
 49
0.0
 49
1.0
 49
0.0
 49
0.0
 49
0.0
 49
0.0
 49
1.0
175
     0
142
0.0208333333333333
142
0.0
142
0.0
142
0.0
142
0.0
142
0.0208333333333333
142
0.0
142
0.0
142
0.0
142
0.0
142
1.0
142
0.0
142
0.0
142
0.0
142
0.0
142
1.0
179
     0
144
0.0208333333333333
144
0.0
144
0.0
144
0.0
144
0.0
144
0.0208333333333333
144
0.0
144
0.0
144
0.0
144
0.0
144
1.0
144
0.0
144
0.0
144
0.0
144
0.0
144
1.0
147
0.0208333333333333
147
0.0
147
0.0
147
0.0
147
0.0
147
0.0208333333333333
147
0.0
147
0.0
147
0.0
147
0.0
147
1.0
147
0.0
147
0.0
147
0.0
147
0.0
147
1.0
  0
MATERIAL
  5
396F
102
{ACAD_XDICTIONARY
360
3970
102
}
102
{ACAD_REACTORS
330
395E
102
}
330
395E
100
AcDbMaterial
  1
Global
 72
     0
 43
0.0208333333333333
 43
0.0
 43
0.0
 43
0.0
 43
0.0
 43
0.0208333333333333
 43
0.0
 43
0.0
 43
0.0
 43
0.0
 43
1.0
 43
0.0
 43
0.0
 43
0.0
 43
0.0
 43
1.0
 77
     0
 47
0.0208333333333333
 47
0.0
 47
0.0
 47
0.0
 47
0.0
 47
0.0208333333333333
 47
0.0
 47
0.0
 47
0.0
 47
0.0
 47
1.0
 47
0.0
 47
0.0
 47
0.0
 47
0.0
 47
1.0
171
     0
 49
0.0208333333333333
 49
0.0
 49
0.0
 49
0.0
 49
0.0
 49
0.0208333333333333
 49
0.0
 49
0.0
 49
0.0
 49
0.0
 49
1.0
 49
0.0
 49
0.0
 49
0.0
 49
0.0
 49
1.0
175
     0
142
0.0208333333333333
142
0.0
142
0.0
142
0.0
142
0.0
142
0.0208333333333333
142
0.0
142
0.0
142
0.0
142
0.0
142
1.0
142
0.0
142
0.0
142
0.0
142
0.0
142
1.0
179
     0
144
0.0208333333333333
144
0.0
144
0.0
144
0.0
144
0.0
144
0.0208333333333333
144
0.0
144
0.0
144
0.0
144
0.0
144
1.0
144
0.0
144
0.0
144
0.0
144
0.0
144
1.0
147
0.0208333333333333
147
0.0
147
0.0
147
0.0
147
0.0
147
0.0208333333333333
147
0.0
147
0.0
147
0.0
147
0.0
147
1.0
147
0.0
147
0.0
147
0.0
147
0.0
147
1.0
  0
MLEADERSTYLE
  5
39AE
102
{ACAD_REACTORS
330
39AD
102
}
330
39AD
100
AcDbMLeaderStyle
170
     2
171
     1
172
     0
 90
        2
 40
0.0
 41
0.0
173
     1
 91
-1056964608
340
11
 92
       -2
290
     1
 42
2.0
291
     1
 43
0.36
  3
Standard
 44
4.0
300

342
17
174
     1
178
     6
175
     1
176
     0
 93
-1056964608
 45
4.0
292
     0
297
     0
 46
4.0
 94
-1056964608
 47
1.0
 49
1.0
140
1.0
293
     1
141
0.0
294
     1
177
     0
142
1.0
295
     0
296
     0
143
0.125
1001
ACAD_MLEADERVER
1070
     2
  0
MLINESTYLE
  5
1C
102
{ACAD_REACTORS
330
1B
102
}
330
1B
100
AcDbMlineStyle
  2
STANDARD
 70
     0
  3

 62
     0
 51
90.0
 52
90.0
 71
     2
 49
0.5
 62
   256
  6
BYLAYER
 49
-0.5
 62
   256
  6
BYLAYER
  0
ACDBPLACEHOLDER
  5
1D
102
{ACAD_REACTORS
330
1F
102
}
330
1F
  0
SCALE
  5
398C
102
{ACAD_REACTORS
330
398B
102
}
330
398B
100
AcDbScale
 70
     0
300
1:1
140
1.0
141
1.0
290
     1
  0
SCALE
  5
398D
102
{ACAD_REACTORS
330
398B
102
}
330
398B
100
AcDbScale
 70
     0
300
1:2
140
1.0
141
2.0
290
     0
  0
SCALE
  5
398E
102
{ACAD_REACTORS
330
398B
102
}
330
398B
100
AcDbScale
 70
     0
300
1:4
140
1.0
141
4.0
290
     0
  0
SCALE
  5
398F
102
{ACAD_REACTORS
330
398B
102
}
330
398B
100
AcDbScale
 70
     0
300
1:5
140
1.0
141
5.0
290
     0
  0
SCALE
  5
3990
102
{ACAD_REACTORS
330
398B
102
}
330
398B
100
AcDbScale
 70
     0
300
1:8
140
1.0
141
8.0
290
     0
  0
SCALE
  5
3991
102
{ACAD_REACTORS
330
398B
102
}
330
398B
100
AcDbScale
 70
     0
300
1:10
140
1.0
141
10.0
290
     0
  0
SCALE
  5
3992
102
{ACAD_REACTORS
330
398B
102
}
330
398B
100
AcDbScale
 70
     0
300
1:16
140
1.0
141
16.0
290
     0
  0
SCALE
  5
3993
102
{ACAD_REACTORS
330
398B
102
}
330
398B
100
AcDbScale
 70
     0
300
1:20
140
1.0
141
20.0
290
     0
  0
SCALE
  5
3994
102
{ACAD_REACTORS
330
398B
102
}
330
398B
100
AcDbScale
 70
     0
300
1:30
140
1.0
141
30.0
290
     0
  0
SCALE
  5
3995
102
{ACAD_REACTORS
330
398B
102
}
330
398B
100
AcDbScale
 70
     0
300
1:40
140
1.0
141
40.0
290
     0
  0
SCALE
  5
3996
102
{ACAD_REACTORS
330
398B
102
}
330
398B
100
AcDbScale
 70
     0
300
1:50
140
1.0
141
50.0
290
     0
  0
SCALE
  5
3997
102
{ACAD_REACTORS
330
398B
102
}
330
398B
100
AcDbScale
 70
     0
300
1:100
140
1.0
141
100.0
290
     0
  0
SCALE
  5
3998
102
{ACAD_REACTORS
330
398B
102
}
330
398B
100
AcDbScale
 70
     0
300
2:1
140
2.0
141
1.0
290
     0
  0
SCALE
  5
3999
102
{ACAD_REACTORS
330
398B
102
}
330
398B
100
AcDbScale
 70
     0
300
4:1
140
4.0
141
1.0
290
     0
  0
SCALE
  5
399A
102
{ACAD_REACTORS
330
398B
102
}
330
398B
100
AcDbScale
 70
     0
300
8:1
140
8.0
141
1.0
290
     0
  0
SCALE
  5
399B
102
{ACAD_REACTORS
330
398B
102
}
330
398B
100
AcDbScale
 70
     0
300
10:1
140
10.0
141
1.0
290
     0
  0
SCALE
  5
399C
102
{ACAD_REACTORS
330
398B
102
}
330
398B
100
AcDbScale
 70
     0
300
100:1
140
100.0
141
1.0
290
     0
  0
SCALE
  5
399D
102
{ACAD_REACTORS
330
398B
102
}
330
398B
100
AcDbScale
 70
     0
300
1/128" = 1'-0"
140
0.0078125
141
12.0
290
     0
  0
SCALE
  5
399E
102
{ACAD_REACTORS
330
398B
102
}
330
398B
100
AcDbScale
 70
     0
300
1/64" = 1'-0"
140
0.015625
141
12.0
290
     0
  0
SCALE
  5
399F
102
{ACAD_REACTORS
330
398B
102
}
330
398B
100
AcDbScale
 70
     0
300
1/32" = 1'-0"
140
0.03125
141
12.0
290
     0
  0
SCALE
  5
39A0
102
{ACAD_REACTORS
330
398B
102
}
330
398B
100
AcDbScale
 70
     0
300
1/16" = 1'-0"
140
0.0625
141
12.0
290
     0
  0
SCALE
  5
39A1
102
{ACAD_REACTORS
330
398B
102
}
330
398B
100
AcDbScale
 70
     0
300
3/32" = 1'-0"
140
0.09375
141
12.0
290
     0
  0
SCALE
  5
39A2
102
{ACAD_REACTORS
330
398B
102
}
330
398B
100
AcDbScale
 70
     0
300
1/8" = 1'-0"
140
0.125
141
12.0
290
     0
  0
SCALE
  5
39A3
102
{ACAD_REACTORS
330
398B
102
}
330
398B
100
AcDbScale
 70
     0
300
3/16" = 1'-0"
140
0.1875
141
12.0
290
     0
  0
SCALE
  5
39A4
102
{ACAD_REACTORS
330
398B
102
}
330
398B
100
AcDbScale
 70
     0
300
1/4" = 1'-0"
140
0.25
141
12.0
290
     0
  0
SCALE
  5
39A5
102
{ACAD_REACTORS
330
398B
102
}
330
398B
100
AcDbScale
 70
     0
300
3/8" = 1'-0"
140
0.375
141
12.0
290
     0
  0
SCALE
  5
39A6
102
{ACAD_REACTORS
330
398B
102
}
330
398B
100
AcDbScale
 70
     0
300
1/2" = 1'-0"
140
0.5
141
12.0
290
     0
  0
SCALE
  5
39A7
102
{ACAD_REACTORS
330
398B
102
}
330
398B
100
AcDbScale
 70
     0
300
3/4" = 1'-0"
140
0.75
141
12.0
290
     0
  0
SCALE
  5
39A8
102
{ACAD_REACTORS
330
398B
102
}
330
398B
100
AcDbScale
 70
     0
300
1" = 1'-0"
140
1.0
141
12.0
290
     0
  0
SCALE
  5
39A9
102
{ACAD_REACTORS
330
398B
102
}
330
398B
100
AcDbScale
 70
     0
300
1-1/2" = 1'-0"
140
1.5
141
12.0
290
     0
  0
SCALE
  5
39AA
102
{ACAD_REACTORS
330
398B
102
}
330
398B
100
AcDbScale
 70
     0
300
3" = 1'-0"
140
3.0
141
12.0
290
     0
  0
SCALE
  5
39AB
102
{ACAD_REACTORS
330
398B
102
}
330
398B
100
AcDbScale
 70
     0
300
6" = 1'-0"
140
6.0
141
12.0
290
     0
  0
SCALE
  5
39AC
102
{ACAD_REACTORS
330
398B
102
}
330
398B
100
AcDbScale
 70
     0
300
1'-0" = 1'-0"
140
12.0
141
12.0
290
     0
  0
TABLESTYLE
  5
398A
102
{ACAD_XDICTIONARY
360
72EA
102
}
102
{ACAD_REACTORS
330
3989
102
}
330
3989
100
AcDbTableStyle
  3
Standard
 70
     0
 71
     0
 40
1.5
 41
1.5
280
     0
281
     0
  7
Standard
140
4.5
170
     2
 62
     0
 63
     7
283
     0
274
    -2
284
     1
 64
     0
275
    -2
285
     1
 65
     0
276
    -2
286
     1
 66
     0
277
    -2
287
     1
 67
     0
278
    -2
288
     1
 68
     0
279
    -2
289
     1
 69
     0
  7
Standard
140
6.0
170
     5
 62
     0
 63
     7
283
     0
274
    -2
284
     1
 64
     0
275
    -2
285
     1
 65
     0
276
    -2
286
     1
 66
     0
277
    -2
287
     1
 67
     0
278
    -2
288
     1
 68
     0
279
    -2
289
     1
 69
     0
  7
Standard
140
4.5
170
     5
 62
     0
 63
     7
283
     0
274
    -2
284
     1
 64
     0
275
    -2
285
     1
 65
     0
276
    -2
286
     1
 66
     0
277
    -2
287
     1
 67
     0
278
    -2
288
     1
 68
     0
279
    -2
289
     1
 69
     0
  0
VISUALSTYLE
  5
397D
102
{ACAD_REACTORS
330
3977
102
}
330
3977
100
AcDbVisualStyle
  2
2dWireframe
 70
     4
 71
     0
 72
     2
 73
     0
 90
        0
 40
-0.6
 41
-30.0
 62
     5
 63
     7
 74
     1
 91
        4
 64
     7
 65
   257
 75
     1
175
     1
 42
1.0
 92
        0
 66
   257
 43
1.0
 76
     1
 77
     6
 78
     2
 67
     7
 79
     5
170
     0
171
     0
290
     0
174
     0
 93
        1
 44
0.0
173
     0
291
     0
 45
0.0
1001
ACAD
1000
AcDbSavedByObjectVersion
1070
     0
1000
AcDbSavedByObjectVersion
1070
     0
1000
AcDbSavedByObjectVersion
1070
     0
1000
AcDbSavedByObjectVersion
1070
     0
  0
VISUALSTYLE
  5
397F
102
{ACAD_REACTORS
330
3977
102
}
330
3977
100
AcDbVisualStyle
  2
3D Hidden
 70
     6
 71
     1
 72
     2
 73
     2
 90
        0
 40
-0.6
 41
-30.0
 62
     5
 63
     7
 74
     2
 91
        2
 64
     7
 65
   257
 75
     2
175
     1
 42
40.0
 92
        0
 66
   257
 43
1.0
 76
     1
 77
     6
 78
     2
 67
     7
 79
     3
170
     0
171
     0
290
     0
174
     0
 93
        1
 44
0.0
173
     0
291
     0
 45
0.0
1001
ACAD
1000
AcDbSavedByObjectVersion
1070
     0
1000
AcDbSavedByObjectVersion
1070
     0
1000
AcDbSavedByObjectVersion
1070
     0
1000
AcDbSavedByObjectVersion
1070
     0
  0
VISUALSTYLE
  5
397E
102
{ACAD_REACTORS
330
3977
102
}
330
3977
100
AcDbVisualStyle
  2
3dWireframe
 70
     5
 71
     0
 72
     2
 73
     0
 90
        0
 40
-0.6
 41
-30.0
 62
     5
 63
     7
 74
     1
 91
        4
 64
     7
 65
   257
 75
     1
175
     1
 42
1.0
 92
        0
 66
   257
 43
1.0
 76
     1
 77
     6
 78
     2
 67
     7
 79
     5
170
     0
171
     0
290
     0
174
     0
 93
        1
 44
0.0
173
     0
291
     0
 45
0.0
1001
ACAD
1000
AcDbSavedByObjectVersion
1070
     0
1000
AcDbSavedByObjectVersion
1070
     0
1000
AcDbSavedByObjectVersion
1070
     0
1000
AcDbSavedByObjectVersion
1070
     0
  0
VISUALSTYLE
  5
397C
102
{ACAD_REACTORS
330
3977
102
}
330
3977
100
AcDbVisualStyle
  2
Basic
 70
     7
 71
     1
 72
     0
 73
     1
 90
        0
 40
-0.6
 41
-30.0
 62
     5
 63
     7
 74
     0
 91
        4
 64
     7
 65
   257
 75
     1
175
     1
 42
1.0
 92
        8
 66
     7
 43
1.0
 76
     1
 77
     6
 78
     2
 67
     7
 79
     5
170
     0
171
     0
290
     0
174
     0
 93
        1
 44
0.0
173
     0
291
     1
 45
0.0
1001
ACAD
1000
AcDbSavedByObjectVersion
1070
     0
1000
AcDbSavedByObjectVersion
1070
     0
1000
AcDbSavedByObjectVersion
1070
     0
1000
AcDbSavedByObjectVersion
1070
     0
  0
VISUALSTYLE
  5
3983
102
{ACAD_REACTORS
330
3977
102
}
330
3977
100
AcDbVisualStyle
  2
Brighten
 70
    12
 71
     2
 72
     2
 73
     0
 90
        0
 40
-0.6
 41
-30.0
 62
     5
 63
     7
 74
     1
 91
        4
 64
     7
 65
   257
 75
     1
175
     1
 42
1.0
 92
        8
 66
     7
 43
1.0
 76
     1
 77
     6
 78
     2
 67
     7
 79
     5
170
     0
171
     0
290
     0
174
     0
 93
        1
 44
50.0
173
     0
291
     1
 45
0.0
1001
ACAD
1000
AcDbSavedByObjectVersion
1070
     0
1000
AcDbSavedByObjectVersion
1070
     0
1000
AcDbSavedByObjectVersion
1070
     0
1000
AcDbSavedByObjectVersion
1070
     0
  0
VISUALSTYLE
  5
3987
102
{ACAD_REACTORS
330
3977
102
}
330
3977
100
AcDbVisualStyle
  2
ColorChange
 70
    16
 71
     2
 72
     2
 73
     3
 90
        0
 40
-0.6
 41
-30.0
 62
     5
 63
     8
 74
     1
 91
        4
 64
     7
 65
   257
 75
     1
175
     1
 42
1.0
 92
        8
 66
     8
 43
1.0
 76
     1
 77
     6
 78
     2
 67
     7
 79
     5
170
     0
171
     0
290
     0
174
     0
 93
        1
 44
0.0
173
     0
291
     1
 45
0.0
1001
ACAD
1000
AcDbSavedByObjectVersion
1070
     0
1000
AcDbSavedByObjectVersion
1070
     0
1000
AcDbSavedByObjectVersion
1070
     0
1000
AcDbSavedByObjectVersion
1070
     0
  0
VISUALSTYLE
  5
3980
102
{ACAD_REACTORS
330
3977
102
}
330
3977
100
AcDbVisualStyle
  2
Conceptual
 70
     9
 71
     3
 72
     2
 73
     0
 90
        0
 40
-0.6
 41
-30.0
 62
     5
 63
     7
 74
     2
 91
        2
 64
     7
 65
   257
 75
     1
175
     1
 42
40.0
 92
        8
 66
     7
 43
1.0
 76
     1
 77
     6
 78
     2
 67
     7
 79
     3
170
     0
171
     0
290
     0
174
     0
 93
        1
 44
0.0
173
     0
291
     0
 45
0.0
1001
ACAD
1000
AcDbSavedByObjectVersion
1070
     0
1000
AcDbSavedByObjectVersion
1070
     0
1000
AcDbSavedByObjectVersion
1070
     0
1000
AcDbSavedByObjectVersion
1070
     0
  0
VISUALSTYLE
  5
3982
102
{ACAD_REACTORS
330
3977
102
}
330
3977
100
AcDbVisualStyle
  2
Dim
 70
    11
 71
     2
 72
     2
 73
     0
 90
        0
 40
-0.6
 41
-30.0
 62
     5
 63
     7
 74
     1
 91
        4
 64
     7
 65
   257
 75
     1
175
     1
 42
1.0
 92
        8
 66
     7
 43
1.0
 76
     1
 77
     6
 78
     2
 67
     7
 79
     5
170
     0
171
     0
290
     0
174
     0
 93
        1
 44
-50.0
173
     0
291
     1
 45
0.0
1001
ACAD
1000
AcDbSavedByObjectVersion
1070
     0
1000
AcDbSavedByObjectVersion
1070
     0
1000
AcDbSavedByObjectVersion
1070
     0
1000
AcDbSavedByObjectVersion
1070
     0
  0
VISUALSTYLE
  5
3986
102
{ACAD_REACTORS
330
3977
102
}
330
3977
100
AcDbVisualStyle
  2
Facepattern
 70
    15
 71
     2
 72
     2
 73
     0
 90
        0
 40
-0.6
 41
-30.0
 62
     5
 63
     7
 74
     1
 91
        4
 64
     7
 65
   257
 75
     1
175
     1
 42
1.0
 92
        8
 66
     7
 43
1.0
 76
     1
 77
     6
 78
     2
 67
     7
 79
     5
170
     0
171
     0
290
     0
174
     0
 93
        1
 44
0.0
173
     0
291
     1
 45
0.0
1001
ACAD
1000
AcDbSavedByObjectVersion
1070
     0
1000
AcDbSavedByObjectVersion
1070
     0
1000
AcDbSavedByObjectVersion
1070
     0
1000
AcDbSavedByObjectVersion
1070
     0
  0
VISUALSTYLE
  5
3978
102
{ACAD_REACTORS
330
3977
102
}
330
3977
100
AcDbVisualStyle
  2
Flat
 70
     0
 71
     2
 72
     1
 73
     1
 90
        2
 40
-0.6
 41
30.0
 62
     5
 63
     7
 74
     0
 91
        4
 64
     7
 65
   257
 75
     1
175
     1
 42
1.0
 92
        8
 66
     7
 43
1.0
 76
     1
 77
     6
 78
     2
 67
     7
 79
     5
170
     0
171
     0
290
     0
174
     0
 93
       13
 44
0.0
173
     0
291
     1
 45
0.0
1001
ACAD
1000
AcDbSavedByObjectVersion
1070
     0
1000
AcDbSavedByObjectVersion
1070
     0
1000
AcDbSavedByObjectVersion
1070
     0
1000
AcDbSavedByObjectVersion
1070
     0
  0
VISUALSTYLE
  5
3979
102
{ACAD_REACTORS
330
3977
102
}
330
3977
100
AcDbVisualStyle
  2
FlatWithEdges
 70
     1
 71
     2
 72
     1
 73
     1
 90
        2
 40
-0.6
 41
30.0
 62
     5
 63
     7
 74
     1
 91
        4
 64
     7
 65
   257
 75
     1
175
     1
 42
1.0
 92
        0
 66
   257
 43
1.0
 76
     1
 77
     6
 78
     2
 67
     7
 79
     5
170
     0
171
     0
290
     0
174
     0
 93
       13
 44
0.0
173
     0
291
     1
 45
0.0
1001
ACAD
1000
AcDbSavedByObjectVersion
1070
     0
1000
AcDbSavedByObjectVersion
1070
     0
1000
AcDbSavedByObjectVersion
1070
     0
1000
AcDbSavedByObjectVersion
1070
     0
  0
VISUALSTYLE
  5
397A
102
{ACAD_REACTORS
330
3977
102
}
330
3977
100
AcDbVisualStyle
  2
Gouraud
 70
     2
 71
     2
 72
     2
 73
     1
 90
        2
 40
-0.6
 41
30.0
 62
     5
 63
     7
 74
     0
 91
        4
 64
     7
 65
   257
 75
     1
175
     1
 42
1.0
 92
        0
 66
     7
 43
1.0
 76
     1
 77
     6
 78
     2
 67
     7
 79
     5
170
     0
171
     0
290
     0
174
     0
 93
       13
 44
0.0
173
     0
291
     1
 45
0.0
1001
ACAD
1000
AcDbSavedByObjectVersion
1070
     0
1000
AcDbSavedByObjectVersion
1070
     0
1000
AcDbSavedByObjectVersion
1070
     0
1000
AcDbSavedByObjectVersion
1070
     0
  0
VISUALSTYLE
  5
397B
102
{ACAD_REACTORS
330
3977
102
}
330
3977
100
AcDbVisualStyle
  2
GouraudWithEdges
 70
     3
 71
     2
 72
     2
 73
     1
 90
        2
 40
-0.6
 41
30.0
 62
     5
 63
     7
 74
     1
 91
        4
 64
     7
 65
   257
 75
     1
175
     1
 42
1.0
 92
        0
 66
   257
 43
1.0
 76
     1
 77
     6
 78
     2
 67
     7
 79
     5
170
     0
171
     0
290
     0
174
     0
 93
       13
 44
0.0
173
     0
291
     1
 45
0.0
1001
ACAD
1000
AcDbSavedByObjectVersion
1070
     0
1000
AcDbSavedByObjectVersion
1070
     0
1000
AcDbSavedByObjectVersion
1070
     0
1000
AcDbSavedByObjectVersion
1070
     0
  0
VISUALSTYLE
  5
3985
102
{ACAD_REACTORS
330
3977
102
}
330
3977
100
AcDbVisualStyle
  2
Linepattern
 70
    14
 71
     2
 72
     2
 73
     0
 90
        0
 40
-0.6
 41
-30.0
 62
     5
 63
     7
 74
     1
 91
        4
 64
     7
 65
   257
 75
     7
175
     7
 42
1.0
 92
        8
 66
     7
 43
1.0
 76
     1
 77
     6
 78
     2
 67
     7
 79
     5
170
     0
171
     0
290
     0
174
     0
 93
        1
 44
0.0
173
     0
291
     1
 45
0.0
1001
ACAD
1000
AcDbSavedByObjectVersion
1070
     0
1000
AcDbSavedByObjectVersion
1070
     0
1000
AcDbSavedByObjectVersion
1070
     0
1000
AcDbSavedByObjectVersion
1070
     0
  0
VISUALSTYLE
  5
3981
102
{ACAD_REACTORS
330
3977
102
}
330
3977
100
AcDbVisualStyle
  2
Realistic
 70
     8
 71
     2
 72
     2
 73
     0
 90
        0
 40
-0.6
 41
-30.0
 62
     5
 63
     7
 74
     1
 91
        0
 64
     7
 65
   257
 75
     1
175
     1
 42
1.0
 92
        8
 66
     8
 43
1.0
 76
     1
 77
     6
 78
     2
 67
     7
 79
     5
170
     0
171
     0
290
     0
174
     0
 93
       13
 44
0.0
173
     0
291
     0
 45
0.0
1001
ACAD
1000
AcDbSavedByObjectVersion
1070
     0
1000
AcDbSavedByObjectVersion
1070
     0
1000
AcDbSavedByObjectVersion
1070
     0
1000
AcDbSavedByObjectVersion
1070
     0
  0
VISUALSTYLE
  5
3984
102
{ACAD_REACTORS
330
3977
102
}
330
3977
100
AcDbVisualStyle
  2
Thicken
 70
    13
 71
     2
 72
     2
 73
     0
 90
        0
 40
-0.6
 41
-30.0
 62
     5
 63
     7
 74
     1
 91
        4
 64
     7
 65
   257
 75
     1
175
     1
 42
1.0
 92
       12
 66
     7
 43
1.0
 76
     1
 77
     6
 78
     2
 67
     7
 79
     5
170
     0
171
     0
290
     0
174
     0
 93
        1
 44
0.0
173
     0
291
     1
 45
0.0
1001
ACAD
1000
AcDbSavedByObjectVersion
1070
     0
1000
AcDbSavedByObjectVersion
1070
     0
1000
AcDbSavedByObjectVersion
1070
     0
1000
AcDbSavedByObjectVersion
1070
     0
  0
DICTIONARYVAR
  5
72CE
102
{ACAD_REACTORS
330
72CB
102
}
330
72CB
100
DictionaryVariables
280
     0
  1
1:1
  0
DICTIONARYVAR
  5
72CD
102
{ACAD_REACTORS
330
72CB
102
}
330
72CB
100
DictionaryVariables
280
     0
  1
STANDARD
  0
DICTIONARYVAR
  5
72CC
102
{ACAD_REACTORS
330
72CB
102
}
330
72CB
100
DictionaryVariables
280
     0
  1
STANDARD
  0
DICTIONARYVAR
  5
72D1
102
{ACAD_REACTORS
330
72CB
102
}
330
72CB
100
DictionaryVariables
280
     0
  1
1
  0
DICTIONARYVAR
  5
72D0
102
{ACAD_REACTORS
330
72CB
102
}
330
72CB
100
DictionaryVariables
280
     0
  1
0
  0
DICTIONARYVAR
  5
72CF
102
{ACAD_REACTORS
330
72CB
102
}
330
72CB
100
DictionaryVariables
280
     0
  1
127
  0
XRECORD
  5
72C8
102
{ACAD_REACTORS
330
72C6
102
}
330
72C6
100
AcDbXrecord
280
     1
  0
DICTIONARY
  5
7B83
330
21
100
AcDbDictionary
280
     1
281
     1
  3
ACAD_XREC_ROUNDTRIP
360
7B84
  0
DICTIONARY
  5
7B81
330
20
100
AcDbDictionary
280
     1
281
     1
  3
ACAD_XREC_ROUNDTRIP
360
7B82
  0
DICTIONARY
  5
3968
330
3967
100
AcDbDictionary
280
     1
281
     1
  3
ACAD_XREC_ROUNDTRIP
360
72F3
  3
BUMPTILE
360
396A
  3
DIFFUSETILE
360
3969
  3
OPACITYTILE
360
396D
  3
REFLECTIONTILE
360
396C
  3
REFRACTIONTILE
360
396E
  3
SPECULARTILE
360
396B
  0
DICTIONARY
  5
3960
330
395F
100
AcDbDictionary
280
     1
281
     1
  3
ACAD_XREC_ROUNDTRIP
360
72F2
  3
BUMPTILE
360
3962
  3
DIFFUSETILE
360
3961
  3
OPACITYTILE
360
3965
  3
REFLECTIONTILE
360
3964
  3
REFRACTIONTILE
360
3966
  3
SPECULARTILE
360
3963
  0
DICTIONARY
  5
3970
330
396F
100
AcDbDictionary
280
     1
281
     1
  3
ACAD_XREC_ROUNDTRIP
360
72F4
  3
BUMPTILE
360
3972
  3
DIFFUSETILE
360
3971
  3
OPACITYTILE
360
3975
  3
REFLECTIONTILE
360
3974
  3
REFRACTIONTILE
360
3976
  3
SPECULARTILE
360
3973
  0
DICTIONARY
  5
72EA
330
398A
100
AcDbDictionary
280
     1
281
     1
  3
ACAD_ROUNDTRIP_2008_TABLESTYLE_CELLSTYLEMAP
360
7B7F
  3
ACAD_XREC_ROUNDTRIP
360
7B85
  0
XRECORD
  5
7B84
102
{ACAD_REACTORS
330
7B83
102
}
330
7B83
100
AcDbXrecord
280
     1
102
SHADEPLOT
 70
     0
102
SHADEPLOTRESLEVEL
 70
     2
102
SHADEPLOTCUSTOMDPI
 70
   300
  0
XRECORD
  5
7B82
102
{ACAD_REACTORS
330
7B81
102
}
330
7B81
100
AcDbXrecord
280
     1
102
SHADEPLOT
 70
     0
102
SHADEPLOTRESLEVEL
 70
     2
102
SHADEPLOTCUSTOMDPI
 70
   300
  0
XRECORD
  5
72F3
102
{ACAD_REACTORS
330
3968
102
}
330
3968
100
AcDbXrecord
280
     1
102
MATERIAL
148
0.0
149
0.0
149
0.0
 93
        0
 94
      127
282
     0
 72
     0
 77
     0
171
     0
175
     0
179
     0
273
     0
  0
XRECORD
  5
396A
102
{ACAD_REACTORS
330
3968
102
}
330
3968
100
AcDbXrecord
280
     1
270
     1
271
     1
  0
XRECORD
  5
3969
102
{ACAD_REACTORS
330
3968
102
}
330
3968
100
AcDbXrecord
280
     1
270
     1
271
     1
  0
XRECORD
  5
396D
102
{ACAD_REACTORS
330
3968
102
}
330
3968
100
AcDbXrecord
280
     1
270
     1
271
     1
  0
XRECORD
  5
396C
102
{ACAD_REACTORS
330
3968
102
}
330
3968
100
AcDbXrecord
280
     1
270
     1
271
     1
  0
XRECORD
  5
396E
102
{ACAD_REACTORS
330
3968
102
}
330
3968
100
AcDbXrecord
280
     1
270
     1
271
     1
  0
XRECORD
  5
396B
102
{ACAD_REACTORS
330
3968
102
}
330
3968
100
AcDbXrecord
280
     1
270
     1
271
     1
  0
XRECORD
  5
72F2
102
{ACAD_REACTORS
330
3960
102
}
330
3960
100
AcDbXrecord
280
     1
102
MATERIAL
148
0.0
149
0.0
149
0.0
 93
        0
 94
      127
282
     0
 72
     0
 77
     0
171
     0
175
     0
179
     0
273
     0
  0
XRECORD
  5
3962
102
{ACAD_REACTORS
330
3960
102
}
330
3960
100
AcDbXrecord
280
     1
270
     1
271
     1
  0
XRECORD
  5
3961
102
{ACAD_REACTORS
330
3960
102
}
330
3960
100
AcDbXrecord
280
     1
270
     1
271
     1
  0
XRECORD
  5
3965
102
{ACAD_REACTORS
330
3960
102
}
330
3960
100
AcDbXrecord
280
     1
270
     1
271
     1
  0
XRECORD
  5
3964
102
{ACAD_REACTORS
330
3960
102
}
330
3960
100
AcDbXrecord
280
     1
270
     1
271
     1
  0
XRECORD
  5
3966
102
{ACAD_REACTORS
330
3960
102
}
330
3960
100
AcDbXrecord
280
     1
270
     1
271
     1
  0
XRECORD
  5
3963
102
{ACAD_REACTORS
330
3960
102
}
330
3960
100
AcDbXrecord
280
     1
270
     1
271
     1
  0
XRECORD
  5
72F4
102
{ACAD_REACTORS
330
3970
102
}
330
3970
100
AcDbXrecord
280
     1
102
MATERIAL
148
0.0
149
0.0
149
0.0
 93
        0
 94
      127
282
     0
 72
     0
 77
     0
171
     0
175
     0
179
     0
273
     0
  0
XRECORD
  5
3972
102
{ACAD_REACTORS
330
3970
102
}
330
3970
100
AcDbXrecord
280
     1
270
     1
271
     1
  0
XRECORD
  5
3971
102
{ACAD_REACTORS
330
3970
102
}
330
3970
100
AcDbXrecord
280
     1
270
     1
271
     1
  0
XRECORD
  5
3975
102
{ACAD_REACTORS
330
3970
102
}
330
3970
100
AcDbXrecord
280
     1
270
     1
271
     1
  0
XRECORD
  5
3974
102
{ACAD_REACTORS
330
3970
102
}
330
3970
100
AcDbXrecord
280
     1
270
     1
271
     1
  0
XRECORD
  5
3976
102
{ACAD_REACTORS
330
3970
102
}
330
3970
100
AcDbXrecord
280
     1
270
     1
271
     1
  0
XRECORD
  5
3973
102
{ACAD_REACTORS
330
3970
102
}
330
3970
100
AcDbXrecord
280
     1
270
     1
271
     1
  0
CELLSTYLEMAP
  5
7B7F
102
{ACAD_REACTORS
330
72EA
102
}
330
72EA
100
AcDbCellStyleMap
 90
        3
300
CELLSTYLE
  1
TABLEFORMAT_BEGIN
 90
        5
170
     1
 91
        0
 92
    32768
 62
   257
 93
        1
300
CONTENTFORMAT
  1
CONTENTFORMAT_BEGIN
 90
        0
 91
        0
 92
      512
 93
        0
300

 40
0.0
140
1.0
 94
        5
 62
     0
340
17
144
6.0
309
CONTENTFORMAT_END
171
     1
301
MARGIN
  1
CELLMARGIN_BEGIN
 40
1.5
 40
1.5
 40
1.5
 40
1.5
 40
0.18
 40
0.18
309
CELLMARGIN_END
 94
        6
 95
        1
302
GRIDFORMAT
  1
GRIDFORMAT_BEGIN
 90
        0
 91
        1
 62
     0
 92
       -2
340
0
 93
        0
 40
1.125
309
GRIDFORMAT_END
 95
        2
302
GRIDFORMAT
  1
GRIDFORMAT_BEGIN
 90
        0
 91
        1
 62
     0
 92
       -2
340
0
 93
        0
 40
1.125
309
GRIDFORMAT_END
 95
        4
302
GRIDFORMAT
  1
GRIDFORMAT_BEGIN
 90
        0
 91
        1
 62
     0
 92
       -2
340
0
 93
        0
 40
1.125
309
GRIDFORMAT_END
 95
        8
302
GRIDFORMAT
  1
GRIDFORMAT_BEGIN
 90
        0
 91
        1
 62
     0
 92
       -2
340
0
 93
        0
 40
1.125
309
GRIDFORMAT_END
 95
       16
302
GRIDFORMAT
  1
GRIDFORMAT_BEGIN
 90
        0
 91
        1
 62
     0
 92
       -2
340
0
 93
        0
 40
1.125
309
GRIDFORMAT_END
 95
       32
302
GRIDFORMAT
  1
GRIDFORMAT_BEGIN
 90
        0
 91
        1
 62
     0
 92
       -2
340
0
 93
        0
 40
1.125
309
GRIDFORMAT_END
309
TABLEFORMAT_END
  1
CELLSTYLE_BEGIN
 90
        1
 91
        1
300
_TITLE
309
CELLSTYLE_END
300
CELLSTYLE
  1
TABLEFORMAT_BEGIN
 90
        5
170
     1
 91
        0
 92
        0
 62
   257
 93
        1
300
CONTENTFORMAT
  1
CONTENTFORMAT_BEGIN
 90
        0
 91
        0
 92
      512
 93
        0
300

 40
0.0
140
1.0
 94
        5
 62
     0
340
17
144
4.5
309
CONTENTFORMAT_END
171
     1
301
MARGIN
  1
CELLMARGIN_BEGIN
 40
1.5
 40
1.5
 40
1.5
 40
1.5
 40
0.18
 40
0.18
309
CELLMARGIN_END
 94
        6
 95
        1
302
GRIDFORMAT
  1
GRIDFORMAT_BEGIN
 90
        0
 91
        1
 62
     0
 92
       -2
340
0
 93
        0
 40
1.125
309
GRIDFORMAT_END
 95
        2
302
GRIDFORMAT
  1
GRIDFORMAT_BEGIN
 90
        0
 91
        1
 62
     0
 92
       -2
340
0
 93
        0
 40
1.125
309
GRIDFORMAT_END
 95
        4
302
GRIDFORMAT
  1
GRIDFORMAT_BEGIN
 90
        0
 91
        1
 62
     0
 92
       -2
340
0
 93
        0
 40
1.125
309
GRIDFORMAT_END
 95
        8
302
GRIDFORMAT
  1
GRIDFORMAT_BEGIN
 90
        0
 91
        1
 62
     0
 92
       -2
340
0
 93
        0
 40
1.125
309
GRIDFORMAT_END
 95
       16
302
GRIDFORMAT
  1
GRIDFORMAT_BEGIN
 90
        0
 91
        1
 62
     0
 92
       -2
340
0
 93
        0
 40
1.125
309
GRIDFORMAT_END
 95
       32
302
GRIDFORMAT
  1
GRIDFORMAT_BEGIN
 90
        0
 91
        1
 62
     0
 92
       -2
340
0
 93
        0
 40
1.125
309
GRIDFORMAT_END
309
TABLEFORMAT_END
  1
CELLSTYLE_BEGIN
 90
        2
 91
        1
300
_HEADER
309
CELLSTYLE_END
300
CELLSTYLE
  1
TABLEFORMAT_BEGIN
 90
        5
170
     1
 91
        0
 92
        0
 62
   257
 93
        1
300
CONTENTFORMAT
  1
CONTENTFORMAT_BEGIN
 90
        0
 91
        0
 92
      512
 93
        0
300

 40
0.0
140
1.0
 94
        2
 62
     0
340
17
144
4.5
309
CONTENTFORMAT_END
171
     1
301
MARGIN
  1
CELLMARGIN_BEGIN
 40
1.5
 40
1.5
 40
1.5
 40
1.5
 40
0.18
 40
0.18
309
CELLMARGIN_END
 94
        6
 95
        1
302
GRIDFORMAT
  1
GRIDFORMAT_BEGIN
 90
        0
 91
        1
 62
     0
 92
       -2
340
0
 93
        0
 40
1.125
309
GRIDFORMAT_END
 95
        2
302
GRIDFORMAT
  1
GRIDFORMAT_BEGIN
 90
        0
 91
        1
 62
     0
 92
       -2
340
0
 93
        0
 40
1.125
309
GRIDFORMAT_END
 95
        4
302
GRIDFORMAT
  1
GRIDFORMAT_BEGIN
 90
        0
 91
        1
 62
     0
 92
       -2
340
0
 93
        0
 40
1.125
309
GRIDFORMAT_END
 95
        8
302
GRIDFORMAT
  1
GRIDFORMAT_BEGIN
 90
        0
 91
        1
 62
     0
 92
       -2
340
0
 93
        0
 40
1.125
309
GRIDFORMAT_END
 95
       16
302
GRIDFORMAT
  1
GRIDFORMAT_BEGIN
 90
        0
 91
        1
 62
     0
 92
       -2
340
0
 93
        0
 40
1.125
309
GRIDFORMAT_END
 95
       32
302
GRIDFORMAT
  1
GRIDFORMAT_BEGIN
 90
        0
 91
        1
 62
     0
 92
       -2
340
0
 93
        0
 40
1.125
309
GRIDFORMAT_END
309
TABLEFORMAT_END
  1
CELLSTYLE_BEGIN
 90
        3
 91
        2
300
_DATA
309
CELLSTYLE_END
  0
XRECORD
  5
7B85
102
{ACAD_REACTORS
330
72EA
102
}
330
72EA
100
AcDbXrecord
280
     1
102
ACAD_ROUNDTRIP_PRE2007_TABLESTYLE
 90
      512
 91
        0
  1

 92
      512
 93
        0
  2

 94
      512
 95
        0
  3

  0
ENDSEC
  0
EOF
